Oops, an error
Loading. Please wait.

Give It All tab

2,019 views 9 this week
no commentswrite comment
1 2 3 4 5
x 7
add to favorites
×
Save as Personal and add changes to this tab that will be seen only by you. Learn more ›
×
You can save this tab as Personal to edit and correct it or add notes. All changes will be seen only by you. Learn more »
launch autoscroll
font size
0
reset
how to read this tab
guitar tuner
edit
Autoscroll
slow
fast
+/-
esc
set tempo
stop
The Amity Affliction - Give It All
Tuning: Drop A#
For rhythm check out this cover: https://www.youtube.com/watch?v=Qvrg_1sYgSo


[Intro]

 C|----------------------------------------------------------------------------------------------------------|
G#|----------------------------------------------------------------------------------------------------------|
D#|----------------------------------------------------------------------------------------------------------|
A#|-5-5-5-5-5-5-5-5-5-5-5-5-5-5--8-8-8-8-8-8-8-8-8-8-8-8-8-8--0-0-0-0-0-0-0-0-0-0-0-0-0-0--10-10-10-10-10-10-|
 F|-5-5-5-5-5-5-5-5-5-5-5-5-5-5--8-8-8-8-8-8-8-8-8-8-8-8-8-8--0-0-0-0-0-0-0-0-0-0-0-0-0-0--10-10-10-10-10-10-|
A#|-5-5-5-5-5-5-5-5-5-5-5-5-5-5--8-8-8-8-8-8-8-8-8-8-8-8-8-8--0-0-0-0-0-0-0-0-0-0-0-0-0-0--10-10-10-10-10-10-|

 C|--------------------------|
G#|--------------------------|
D#|--------------------------|
A#|-10-10-10-10-10-10-10-10--| x2
 F|-10-10-10-10-10-10-10-10--|
A#|-10-10-10-10-10-10-10-10--|


[Verse 1]

silence for "just take it all, my heart, my bones" then

 C|----------------------------------------------------------------------------------------------------------|
G#|----------------------------------------------------------------------------------------------------------|
D#|----------------------------------------------------------------------------------------------------------|
A#|--10-10-10-10-10-10-10-10-10-10-10-10-10-10-10-10--7-7-7-7-7-7-7-7-7-7-7-7-7-7-7-7--8-8-8-8-8-8-8-8-8-8-8-|
 F|--10-10-10-10-10-10-10-10-10-10-10-10-10-10-10-10--7-7-7-7-7-7-7-7-7-7-7-7-7-7-7-7--8-8-8-8-8-8-8-8-8-8-8-|
A#|--10-10-10-10-10-10-10-10-10-10-10-10-10-10-10-10--7-7-7-7-7-7-7-7-7-7-7-7-7-7-7-7--8-8-8-8-8-8-8-8-8-8-8-|

 C|---------------------------------------------|
G#|---------------------------------------------|
D#|---------------------------------------------|
A#|-8-8-8-8-8--0-0-0-0-0-0-0-0-0-0-0-0-0-0-0-0--| x2
 F|-8-8-8-8-8--0-0-0-0-0-0-0-0-0-0-0-0-0-0-0-0--|
A#|-8-8-8-8-8--0-0-0-0-0-0-0-0-0-0-0-0-0-0-0-0--|

(on second time end with 12 open strums instead of 16)


[Pre Chorus]

"and I feel helpless when I stumble..."

 C|------------------------------------------------------------------------------------------------|
G#|------------------------------------------------------------------------------------------------|
D#|------------------------------------------------------------------------------------------------|
A#|--5-5-5-5-5-5-5-5-5-5-5-5-5-5-5-5--8-8-8-8-8-8-8-8--7-7-7-7-7-7-7-7--0-0-0-0-0-0-0-0-0-0-0-0-0--| x2
 F|--5-5-5-5-5-5-5-5-5-5-5-5-5-5-5-5--8-8-8-8-8-8-8-8--7-7-7-7-7-7-7-7--0-0-0-0-0-0-0-0-0-0-0-0-0--|
A#|--5-5-5-5-5-5-5-5-5-5-5-5-5-5-5-5--8-8-8-8-8-8-8-8--7-7-7-7-7-7-7-7--0-0-0-0-0-0-0-0-0-0-0-0-0--|


[Chorus]
 C|----------------------------------------------------------------------------------------------------------|
G#|----------------------------------------------------------------------------------------------------------|
D#|----------------------------------------------------------------------------------------------------------|
A#|-5-5-5-5-5-5-5-5-5-5-5-5-5-5--8-8-8-8-8-8-8-8-8-8-8-8-8-8--0-0-0-0-0-0-0-0-0-0-0-0-0-0--10-10-10-10-10-10-|
 F|-5-5-5-5-5-5-5-5-5-5-5-5-5-5--8-8-8-8-8-8-8-8-8-8-8-8-8-8--0-0-0-0-0-0-0-0-0-0-0-0-0-0--10-10-10-10-10-10-|
A#|-5-5-5-5-5-5-5-5-5-5-5-5-5-5--8-8-8-8-8-8-8-8-8-8-8-8-8-8--0-0-0-0-0-0-0-0-0-0-0-0-0-0--10-10-10-10-10-10-|

 C|--------------------------|
G#|--------------------------|
D#|--------------------------|
A#|-10-10-10-10-10-10-10-10--| x2
 F|-10-10-10-10-10-10-10-10--|
A#|-10-10-10-10-10-10-10-10--|

[Verse 2]

"but every song's..."

 C|----------------------------------|
G#|----------------------------------|
D#|----------------------------------|
A#|--8-8-8-8-8-8-8-8-8-8-8-8-8-8-8-8-|
 F|--8-8-8-8-8-8-8-8-8-8-8-8-8-8-8-8-|
A#|--8-8-8-8-8-8-8-8-8-8-8-8-8-8-8-8-|

then

"I give to you, you give to me..."

 C|----------------------------------------------------------------------------------------------------------|
G#|----------------------------------------------------------------------------------------------------------|
D#|----------------------------------------------------------------------------------------------------------|
A#|--10-10-10-10-10-10-10-10-10-10-10-10-10-10-10-10--7-7-7-7-7-7-7-7-7-7-7-7-7-7-7-7--8-8-8-8-8-8-8-8-8-8-8-|
 F|--10-10-10-10-10-10-10-10-10-10-10-10-10-10-10-10--7-7-7-7-7-7-7-7-7-7-7-7-7-7-7-7--8-8-8-8-8-8-8-8-8-8-8-|
A#|--10-10-10-10-10-10-10-10-10-10-10-10-10-10-10-10--7-7-7-7-7-7-7-7-7-7-7-7-7-7-7-7--8-8-8-8-8-8-8-8-8-8-8-|

 C|---------------------------------------------|
G#|---------------------------------------------|
D#|---------------------------------------------|
A#|-8-8-8-8-8--0-0-0-0-0-0-0-0-0-0-0-0-0-0-0-0--| x2
 F|-8-8-8-8-8--0-0-0-0-0-0-0-0-0-0-0-0-0-0-0-0--|
A#|-8-8-8-8-8--0-0-0-0-0-0-0-0-0-0-0-0-0-0-0-0--|


[Chorus]
 C|----------------------------------------------------------------------------------------------------------|
G#|----------------------------------------------------------------------------------------------------------|
D#|----------------------------------------------------------------------------------------------------------|
A#|-5-5-5-5-5-5-5-5-5-5-5-5-5-5--8-8-8-8-8-8-8-8-8-8-8-8-8-8--0-0-0-0-0-0-0-0-0-0-0-0-0-0--10-10-10-10-10-10-|
 F|-5-5-5-5-5-5-5-5-5-5-5-5-5-5--8-8-8-8-8-8-8-8-8-8-8-8-8-8--0-0-0-0-0-0-0-0-0-0-0-0-0-0--10-10-10-10-10-10-|
A#|-5-5-5-5-5-5-5-5-5-5-5-5-5-5--8-8-8-8-8-8-8-8-8-8-8-8-8-8--0-0-0-0-0-0-0-0-0-0-0-0-0-0--10-10-10-10-10-10-|

 C|--------------------------|
G#|--------------------------|
D#|--------------------------|
A#|-10-10-10-10-10-10-10-10--| x2
 F|-10-10-10-10-10-10-10-10--|
A#|-10-10-10-10-10-10-10-10--|


[Interlude]
(soft) "I give it all.."

 C|------|------|------|-------|
G#|------|------|------|-------|
D#|--5~--|--8~--|--0~--|--10~--|
A#|------|------|------|-------| x2
 F|------|------|------|-------|
A#|--5~--|--8~--|--0~--|--10~--|


[Bridge]

"at the end..."

 C|----------------------------------|
G#|----------------------------------|
D#|----------------------------------|
A#|-0-0-0-0-0-0-0-0-0-0-0-0-0-0-0-0--| x2
 F|-0-0-0-0-0-0-0-0-0-0-0-0-0-0-0-0--|
A#|-0-0-0-0-0-0-0-0-0-0-0-0-0-0-0-0--|

"this is for you..."

 C|-------------|
G#|-------------|
D#|-------------|
A#|--5-5-5-5-5--|
 F|--5-5-5-5-5--|
A#|--5-5-5-5-5--|

"...me..."

 C|-----------------------------------|
G#|-----------------------------------|
D#|-----------------------------------|
A#|--7-7-7-7-7-7-7-7-7-7-7-7-7-7-7-7--|
 F|--7-7-7-7-7-7-7-7-7-7-7-7-7-7-7-7--|
A#|--5-5-5-5-5-5-5-5-5-5-5-5-5-5-5-5--|

"your fight to..."

 C|-----------------------------------|
G#|-----------------------------------|
D#|-----------------------------------|
A#|--0-0-0-0-0-0-0-0-0-0-0-0-0-0-0-0--|
 F|--0-0-0-0-0-0-0-0-0-0-0-0-0-0-0-0--|
A#|--0-0-0-0-0-0-0-0-0-0-0-0-0-0-0-0--|


[Chorus]
(guitar starts on "fall, I get up...")
 C|----------------------------------------------------------------------------------------------------------|
G#|----------------------------------------------------------------------------------------------------------|
D#|----------------------------------------------------------------------------------------------------------|
A#|-5-5-5-5-5-5-5-5-5-5-5-5-5-5--8-8-8-8-8-8-8-8-8-8-8-8-8-8--0-0-0-0-0-0-0-0-0-0-0-0-0-0--10-10-10-10-10-10-|
 F|-5-5-5-5-5-5-5-5-5-5-5-5-5-5--8-8-8-8-8-8-8-8-8-8-8-8-8-8--0-0-0-0-0-0-0-0-0-0-0-0-0-0--10-10-10-10-10-10-|
A#|-5-5-5-5-5-5-5-5-5-5-5-5-5-5--8-8-8-8-8-8-8-8-8-8-8-8-8-8--0-0-0-0-0-0-0-0-0-0-0-0-0-0--10-10-10-10-10-10-|

 C|--------------------------|
G#|--------------------------|
D#|--------------------------|
A#|-10-10-10-10-10-10-10-10--| x4
 F|-10-10-10-10-10-10-10-10--|
A#|-10-10-10-10-10-10-10-10--|

(then as the choir starts to sing alone)

 C|----8----------8------------------------|--------8-8---------------------------|
G#|--8---11-10--6---11-10-8--6h8-6-5-6-3~--|--6-6-6-----11-10-8--6h8/10-6-5-6-3~--|
D#|----------------------------------------|--------------------------------------|
A#|----------------------------------------|--------------------------------------| x2
 F|----------------------------------------|--------------------------------------|
A#|----------------------------------------|--------------------------------------|

****
h = hammer on
/ = slide
~ = let ring
****

            
            
Suggest correction
Creating personal tab
Creating personal tab
You can edit any tab online and save it as your Personal.

You can edit, replace or remove any tab part or add personal notes – all changes will be seen only by you.

Personal tabs can be accessed anytime from any device, even offline.
Learn more »
comments
print report bad tab
guest
You may want to rate the tab now too:
select rating
Wanna post a correction for this tab? Suggest correction