Oops, an error
Loading. Please wait.

I Bring The Weather With Me solo tab

version 1
version 1

Solo

Whole song

  • I haven't seen a tab for the whole song, and the t... Show more

Interactive

5,468 views 18 this week
1 commentread comment
1 2 3 4 5
x 8
add to favorites
×
Save as Personal and add changes to this tab that will be seen only by you. Learn more ›
×
You can save this tab as Personal to edit and correct it or add notes. All changes will be seen only by you. Learn more »
launch autoscroll
font size
0
reset
how to read this tab
guitar tuner
edit
Autoscroll
slow
fast
+/-
esc
set tempo
stop
Author
I Bring The Weather With Me (Solo)
The Amity Affliction

Tempo = 88

New Amity song dropped yesterday and it HAS A SOLO, WHAT IS THIS.
This is tabbed in standard: play it higher on the fretboard if you're in Amity's Drop tuning.
Mostly accurate but as it's done by ear I'm sure theres some mistakes.


[Solo]

e|----------------------------|
B|-----15s---14----12s10------|
G|----------------------------|
D|----------------------------|
A|----------------------------|
E|----------------------------|

e|--------------------------------14-12-9--10-9-------|
B|--9-----------10-------------10----------------10---|
G|--------------------9-------------------------------|
D|----------------------------------------------------|
A|----------------------------------------------------|
E|----------------------------------------------------|

e|----------------------------------------------------|
B|--7-----10----12----------12s---------10------------|
G|-----9----------------------------------------------|
D|----------------------------------------------------|
A|----------------------------------------------------|
E|----------------------------------------------------|

e|----------------------------------------------------|
B|-----10----10---------------------------------------|
G|--------11----9-------------------------------------|
D|-----------------11-9--11-9-------------------------|
A|--------------------------------12------------------|
E|----------------------------------------------------|

e|----------------------------------------------------|
B|-----------------------10----14s12s10---------------|
G|-----------9-----9--11----11------------------------|
D|-----9--11----11------------------------------------|
A|--12------------------------------------------------|
E|----------------------------------------------------|

e|--17----16-14-16----14-12-14---|
B|-------------------------------|
G|-----------------13------------|
D|-------------------------------|
A|-------------------------------|
E|-------------------------------|

e|-------------------------------------------------------|
B|--12-------------------------------------14------------|
G|-----------------------------13-9--11------------------|
D|-----12-11-12-11----------11----------11---------------|
A|-----------------12-9--12------------------------------|
E|-------------------------------------------------------|

e|--------------------------------------------------------------------------------|
B|--15s---------------------------------------------------------------------------|
G|--------------------------14----------------------------------------------------|
D|--------------------------------------------------14----------------------------|
A|--------------------------------------------------------------------------------|
E|--------------------------------------------------------------------------------|

e|-----------------------------------------|
B|-----------------------------------------|
G|------16s------14------------------------|
D|-----------------------------------------|
A|-----------------------------------------|
E|-----------------------------------------|


Also the riff that's heard throughout the song, at the beginning of certain verses etc.

e|----------------------------------------------------|
B|----------------------------------------------------|
G|--14-------13-------9--------11-------6-------------|
D|----------------------------------------------------|
A|----------------------------------------------------|
E|----------------------------------------------------|



************************************

| s  Slide

************************************

            
            
Suggest correction
Creating personal tab
Creating personal tab
You can edit any tab online and save it as your Personal.

You can edit, replace or remove any tab part or add personal notes – all changes will be seen only by you.

Personal tabs can be accessed anytime from any device, even offline.
Learn more »
comments
print report bad tab
1 comment total.
+1 reply
Roqua_99 43 May 24, 2016 02:05 AM

Awesome sounds bang on.

Only thing I can fault is the fact I believe the start is a bend, and the odd couple of bent notes with secondary notes coming alongside them (sorry I don't know the term).

Still solid tab.

guest
You may want to rate the tab now too:
select rating
Wanna post a correction for this tab? Suggest correction