Oops, an error
Loading. Please wait.

I Bring The Weather With Me Tab

version 1
version 1

Whole song

  • I haven't seen a tab for the whole song, and the t... Show more

Interactive

133 views 48 this week
no commentswrite comment
1 2 3 4 5
1 last vote to show rating
add to favorites
launch autoscroll
font size
0
reset
how to read this tab
guitar tuner
Autoscroll
slow
fast
+/-
esc
set tempo
stop
Help us to improve Ultimate-Guitar.com Take our survey!
×
Author
Difficulty
Tuning
intermediate
B F# B E G# C#
About this tab version
I haven't seen a tab for the whole song, and the tabs I've seen for the guitar solo have all been in standard tuning. This tab is the complete song, plus solo in the tuning Amity play it in. Was this info helpful? Yes No
[Intro]

C#|---------------------------------------------------------------------------|
G#|---------------------------------------------------------------------------|
E |---------------------------------------------------------------------------|
B |--7-7-7-7-7-7-7-7--5-5-5-5-5-5-5-5--3-3-3-3-3-3-3-3-3-3-3-3-3-3-3-3--------|
F#|--7-7-7-7-7-7-7-7--5-5-5-5-5-5-5-5--3-3-3-3-3-3-3-3-3-3-3-3-3-3-3-3--------|
B |--7-7-7-7-7-7-7-7--5-5-5-5-5-5-5-5--3-3-3-3-3-3-3-3-3-3-3-3-3-3-3-3--------|

C#|---------------------------------------------------------------------------|
G#|---------------------------------------------------------------------------|
E |---------------------------------------------------------------------------|
B |--3-3-3-3-3-3-3-3--7-7-7-7-7-7-7-7--5-5-5-5-5-5-5-5-5-5-5-5-5-5-5-5--------|
F#|--3-3-3-3-3-3-3-3--7-7-7-7-7-7-7-7--5-5-5-5-5-5-5-5-5-5-5-5-5-5-5-5--------|
B |--3-3-3-3-3-3-3-3--7-7-7-7-7-7-7-7--5-5-5-5-5-5-5-5-5-5-5-5-5-5-5-5--------|

C#|---------------------------------------------------------------------------|
G#|---------------------------------------------------------------------------|
E |---------------------------------------------------------------------------|
B |--7-7-7-7-7-7-7-7--5-5-5-5-5-5-5-5--3-3-3-3-3-3-3-3-3-3-3-3-3-3-3-3--------|
F#|--7-7-7-7-7-7-7-7--5-5-5-5-5-5-5-5--3-3-3-3-3-3-3-3-3-3-3-3-3-3-3-3--------|
B |--7-7-7-7-7-7-7-7--5-5-5-5-5-5-5-5--3-3-3-3-3-3-3-3-3-3-3-3-3-3-3-3--------|

C#|---------------------------------------------------------------------------|
G#|---------------------------------------------------------------------------|
E |---------------------------------------------------------------------------|
B |--3-3-3-3-3-3-3-3-3-3-3-3-3-3-3-3--5-5-5-5-5-5-5-5-5-5-5-5-5-5-5-5-5-------|
F#|--3-3-3-3-3-3-3-3-3-3-3-3-3-3-3-3--5-5-5-5-5-5-5-5-5-5-5-5-5-5-5-5-5-------|
B |--3-3-3-3-3-3-3-3-3-3-3-3-3-3-3-3--5-5-5-5-5-5-5-5-5-5-5-5-5-5-5-5-5-------|

C#|---------------------------------------------------------------------------|
G#|---------------------------------------------------------------------------|
E |---------------------------------------------------------------------------|
B |--7---5---2--3--3----------------------------------------------------------|
F#|--7---5---2--3--3----------------------------------------------------------|
B |--7---5---2--3--3----------------------------------------------------------|


[Verse] x2

C#|---------------------------------------------------------------------------|
G#|---------------------------------------------------------------------------|
E |------------------------------12---12--------------------------------------|
B |--10-----10-----10-----10--------------------------------------------------|
F#|---------------------------------------------------------------------------|
B |-----7-7----7-7----7-7----7-7----7----7------------------------------------|

C#|---------------------------------------------------------------------------|
G#|---------------------------------------------------------------------------|
E |--9------9------9------9---------------------------------------------------|
B |------------------------------12---12--------------------------------------|
F#|---------------------------------------------------------------------------|
B |-----7-7----7-7----7-7----7-7----7----7------------------------------------|

C#|---------------------------------------------------------------------------|
G#|---------------------------------------------------------------------------|
E |--7------7------7------7------9----9---------------------------------------|
B |---------------------------------------------------------------------------|
F#|---------------------------------------------------------------------------|
B |-----5-5----5-5----5-5----5-5----5----5------------------------------------|

C#|---------------------------------------------------------------------------|
G#|---------------------------------------------------------------------------|
E |--7------7------7------7---------------------------------------------------|
B |------------------------------9----9---------------------------------------|
F#|---------------------------------------------------------------------------|
B |-----5-5----5-5----5-5----5-5----5----5------------------------------------|

[Pre-Chorus]

C#|---------------------------------------------------------------------------|
G#|---------------------------------------------------------------------------|
E |-------------------7-7-7-7-7-7-7-7-----------------------------------------|
B |--3-3-3-3-3-3-3-3--7-7-7-7-7-7-7-7--7-7-7-7-7-7-7-7-7-7-7-7-7-7-7-7--------|
F#|--3-3-3-3-3-3-3-3--5-5-5-5-5-5-5-5--7-7-7-7-7-7-7-7-7-7-7-7-7-7-7-7--------|
B |--3-3-3-3-3-3-3-3-------------------7-7-7-7-7-7-7-7-7-7-7-7-7-7-7-7--------|

C#|---------------------------------------------------------------------------|
G#|---------------------------------------------------------------------------|
E |-------------------7-7-7-7-7-7-7-7-----------------------------------------|
B |--3-3-3-3-3-3-3-3--7-7-7-7-7-7-7-7--5--------------------------------------|
F#|--3-3-3-3-3-3-3-3--5-5-5-5-5-5-5-5--5--------------------------------------|
B |--3-3-3-3-3-3-3-3-------------------5--------------------------------------|



[Chorus]

C#|---------------------------------------------------------------------------|
G#|---------------------------------------------------------------------------|
E |---------------------------------------------------------------------------|
B |--3--3-3-3-3--7--7-7-7-7-7-7-7-7-7-7-7-7-7-7-7-7-7-7-----------------------|
F#|--3--3-3-3-3--7--7-7-7-7-7-7-7-7-7-7-7-7-7-7-7-7-7-7-----------------------|
B |--3--3-3-3-3--7--7-7-7-7-7-7-7-7-7-7-7-7-7-7-7-7-7-7-----------------------|

C#|---------------------------------------------------------------------------|
G#|---------------------------------------------------------------------------|
E |---------------------------------------------------------------------------|
B |--5--5---3--3-3-3-3-3-3-3-3-3-3-3-3-3-3-3-3-3-3----------------------------|
F#|--5--5---3--3-3-3-3-3-3-3-3-3-3-3-3-3-3-3-3-3-3----------------------------|
B |--5--5---3--3-3-3-3-3-3-3-3-3-3-3-3-3-3-3-3-3-3----------------------------|

C#|---------------------------------------------------------------------------|
G#|---------------------------------------------------------------------------|
E |---------------------------------------------------------------------------|
B |--3--3-3-3-3--7--7-7-7-7-7-7-7-7-7-7-7-7-7-7-7-7-7-7-----------------------|
F#|--3--3-3-3-3--7--7-7-7-7-7-7-7-7-7-7-7-7-7-7-7-7-7-7-----------------------|
B |--3--3-3-3-3--7--7-7-7-7-7-7-7-7-7-7-7-7-7-7-7-7-7-7-----------------------|

C#|---------------------------------------------------------------------------|
G#|---------------------------------------------------------------------------|
E |---------------------------------------------------------------------------|
B |--2--2---3--3-3-3-3-3-3-3-3-3-3-3-3----------------------------------------|
F#|--2--2---3--3-3-3-3-3-3-3-3-3-3-3-3----------------------------------------|
B |--2--2---3--3-3-3-3-3-3-3-3-3-3-3-3----------------------------------------|

[Interlude]

C#|---------------------------------------------------------------------------|
G#|---------------------------------------------------------------------------|
E |---------------------------------------------------------------------------|
B |--7-7-7-7-7-7-7-7--5-5-5-5-5-5-5-5--3-3-3-3-3-3-3-3-3-3-3-3-3-3-3-3--------|
F#|--7-7-7-7-7-7-7-7--5-5-5-5-5-5-5-5--3-3-3-3-3-3-3-3-3-3-3-3-3-3-3-3--------|
B |--7-7-7-7-7-7-7-7--5-5-5-5-5-5-5-5--3-3-3-3-3-3-3-3-3-3-3-3-3-3-3-3--------|

C#|---------------------------------------------------------------------------|
G#|---------------------------------------------------------------------------|
E |---------------------------------------------------------------------------|
B |--3-3-3-3-3-3-3-3--7-7-7-7-7-7-7-7--5-5-5-5-5-5-5-5-5-5-5-5-5-5-5-5--------|
F#|--3-3-3-3-3-3-3-3--7-7-7-7-7-7-7-7--5-5-5-5-5-5-5-5-5-5-5-5-5-5-5-5--------|
B |--3-3-3-3-3-3-3-3--7-7-7-7-7-7-7-7--5-5-5-5-5-5-5-5-5-5-5-5-5-5-5-5--------|

C#|---------------------------------------------------------------------------|
G#|---------------------------------------------------------------------------|
E |---------------------------------------------------------------------------|
B |--7-7-7-7-7-7-7-7--5-5-5-5-5-5-5-5--3-3-3-3-3-3-3-3-3-3-3-3-3-3-3-3--------|
F#|--7-7-7-7-7-7-7-7--5-5-5-5-5-5-5-5--3-3-3-3-3-3-3-3-3-3-3-3-3-3-3-3--------|
B |--7-7-7-7-7-7-7-7--5-5-5-5-5-5-5-5--3-3-3-3-3-3-3-3-3-3-3-3-3-3-3-3--------|

C#|---------------------------------------------------------------------------|
G#|---------------------------------------------------------------------------|
E |---------------------------------------------------------------------------|
B |--3-3-3-3-3-3-3-3-3-3-3-3-3-3-3-3--5-5-5-5-5-5-5-5-5-5-5-5-5-5-5-5-5-------|
F#|--3-3-3-3-3-3-3-3-3-3-3-3-3-3-3-3--5-5-5-5-5-5-5-5-5-5-5-5-5-5-5-5-5-------|
B |--3-3-3-3-3-3-3-3-3-3-3-3-3-3-3-3--5-5-5-5-5-5-5-5-5-5-5-5-5-5-5-5-5-------|

C#|---------------------------------------------------------------------------|
G#|---------------------------------------------------------------------------|
E |---------------------------------------------------------------------------|
B |--7---5---2--3--3----------------------------------------------------------|
F#|--7---5---2--3--3----------------------------------------------------------|
B |--7---5---2--3--3----------------------------------------------------------|

[Verse] x2

C#|---------------------------------------------------------------------------|
G#|---------------------------------------------------------------------------|
E |------------------------------12---12--------------------------------------|
B |--10-----10-----10-----10--------------------------------------------------|
F#|---------------------------------------------------------------------------|
B |-----7-7----7-7----7-7----7-7----7----7------------------------------------|

C#|---------------------------------------------------------------------------|
G#|---------------------------------------------------------------------------|
E |--9------9------9------9---------------------------------------------------|
B |------------------------------12---12--------------------------------------|
F#|---------------------------------------------------------------------------|
B |-----7-7----7-7----7-7----7-7----7----7------------------------------------|

C#|---------------------------------------------------------------------------|
G#|---------------------------------------------------------------------------|
E |--7------7------7------7------9----9---------------------------------------|
B |---------------------------------------------------------------------------|
F#|---------------------------------------------------------------------------|
B |-----5-5----5-5----5-5----5-5----5----5------------------------------------|

C#|---------------------------------------------------------------------------|
G#|---------------------------------------------------------------------------|
E |--7------7------7------7---------------------------------------------------|
B |------------------------------9----9---------------------------------------|
F#|---------------------------------------------------------------------------|
B |-----5-5----5-5----5-5----5-5----5----5------------------------------------|

[Pre-Chorus]

C#|---------------------------------------------------------------------------|
G#|---------------------------------------------------------------------------|
E |-------------------7-7-7-7-7-7-7-7-----------------------------------------|
B |--3-3-3-3-3-3-3-3--7-7-7-7-7-7-7-7--7-7-7-7-7-7-7-7-7-7-7-7-7-7-7-7--------|
F#|--3-3-3-3-3-3-3-3--5-5-5-5-5-5-5-5--7-7-7-7-7-7-7-7-7-7-7-7-7-7-7-7--------|
B |--3-3-3-3-3-3-3-3-------------------7-7-7-7-7-7-7-7-7-7-7-7-7-7-7-7--------|

C#|---------------------------------------------------------------------------|
G#|---------------------------------------------------------------------------|
E |-------------------7-7-7-7-7-7-7-7-----------------------------------------|
B |--3-3-3-3-3-3-3-3--7-7-7-7-7-7-7-7--5--------------------------------------|
F#|--3-3-3-3-3-3-3-3--5-5-5-5-5-5-5-5--5--------------------------------------|
B |--3-3-3-3-3-3-3-3-------------------5--------------------------------------|

[Chorus]

C#|---------------------------------------------------------------------------|
G#|---------------------------------------------------------------------------|
E |---------------------------------------------------------------------------|
B |--3--3-3-3-3--7--7-7-7-7-7-7-7-7-7-7-7-7-7-7-7-7-7-7-----------------------|
F#|--3--3-3-3-3--7--7-7-7-7-7-7-7-7-7-7-7-7-7-7-7-7-7-7-----------------------|
B |--3--3-3-3-3--7--7-7-7-7-7-7-7-7-7-7-7-7-7-7-7-7-7-7-----------------------|

C#|---------------------------------------------------------------------------|
G#|---------------------------------------------------------------------------|
E |---------------------------------------------------------------------------|
B |--5--5---3--3-3-3-3-3-3-3-3-3-3-3-3-3-3-3-3-3-3----------------------------|
F#|--5--5---3--3-3-3-3-3-3-3-3-3-3-3-3-3-3-3-3-3-3----------------------------|
B |--5--5---3--3-3-3-3-3-3-3-3-3-3-3-3-3-3-3-3-3-3----------------------------|

C#|---------------------------------------------------------------------------|
G#|---------------------------------------------------------------------------|
E |---------------------------------------------------------------------------|
B |--3--3-3-3-3--7--7-7-7-7-7-7-7-7-7-7-7-7-7-7-7-7-7-7-----------------------|
F#|--3--3-3-3-3--7--7-7-7-7-7-7-7-7-7-7-7-7-7-7-7-7-7-7-----------------------|
B |--3--3-3-3-3--7--7-7-7-7-7-7-7-7-7-7-7-7-7-7-7-7-7-7-----------------------|

C#|---------------------------------------------------------------------------|
G#|---------------------------------------------------------------------------|
E |---------------------------------------------------------------------------|
B |--2--2---3--3-3-3-3-3-3-3-3-3-3-3-3----------------------------------------|
F#|--2--2---3--3-3-3-3-3-3-3-3-3-3-3-3----------------------------------------|
B |--2--2---3--3-3-3-3-3-3-3-3-3-3-3-3----------------------------------------|

[Solo]

C#|---------------------------------------------------------------------------|
G#|--17b-17~-15-13-13--12--13--8----------------------------------------------|
E |---------------------------------------------------------------------------|
B |---------------------------------------------------------------------------|
F#|---------------------------------------------------------------------------|
B |---------------------------------------------------------------------------|

C#|-----17-15-12-13-12--------------------------------------------------------|
G#|--13----------------13-------13-13b-13b-13b-13~----------------------------|
E |-----------------------14-12-----------------------------------------------|
B |---------------------------------------------------------------------------|
F#|---------------------------------------------------------------------------|
B |---------------------------------------------------------------------------|


C#|-----17----------------------------------8----10b-8~------------------------|
G#|--13----13----------------------8---8-10---10------------------------------|
E |-----------12-9-7-9-7-5---5-7-9---9----------------------------------------|
B |------------------------7--------------------------------------------------|
F#|---------------------------------------------------------------------------|
B |---------------------------------------------------------------------------|

C#|--20-19-17-19----17-15-17--------------------------------------------------|
G#|--------------------------15-----------------------------------------------|
E |--------------16-------------14--9-10-9-7-5--------------------------------|
B |---------------------------------------------------------------------------|
F#|---------------------------------------------------------------------------|
B |---------------------------------------------------------------------------|

C#|--------------12-------------------------------------------------------------|
G#|----12-8-10-8----8~--17b--13~----13~--------------------------------------------------------|
E |--9---------------------------12----------------------------------------------|
B |---------------------------------------------------------------------------|
F#|---------------------------------------------------------------------------|
B |---------------------------------------------------------------------------|



[Chorus]

C#|---------------------------------------------------------------------------|
G#|---------------------------------------------------------------------------|
E |---------------------------------------------------------------------------|
B |--3--3-3-3-3--7--7-7-7-7-7-7-7-7-7-7-7-7-7-7-7-7-7-7-----------------------|
F#|--3--3-3-3-3--7--7-7-7-7-7-7-7-7-7-7-7-7-7-7-7-7-7-7-----------------------|
B |--3--3-3-3-3--7--7-7-7-7-7-7-7-7-7-7-7-7-7-7-7-7-7-7-----------------------|

C#|---------------------------------------------------------------------------|
G#|---------------------------------------------------------------------------|
E |---------------------------------------------------------------------------|
B |--5--5---3--3-3-3-3-3-3-3-3-3-3-3-3-3-3-3-3-3-3----------------------------|
F#|--5--5---3--3-3-3-3-3-3-3-3-3-3-3-3-3-3-3-3-3-3----------------------------|
B |--5--5---3--3-3-3-3-3-3-3-3-3-3-3-3-3-3-3-3-3-3----------------------------|

C#|---------------------------------------------------------------------------|
G#|---------------------------------------------------------------------------|
E |---------------------------------------------------------------------------|
B |--3--3-3-3-3--7--7-7-7-7-7-7-7-7-7-7-7-7-7-7-7-7-7-7-----------------------|
F#|--3--3-3-3-3--7--7-7-7-7-7-7-7-7-7-7-7-7-7-7-7-7-7-7-----------------------|
B |--3--3-3-3-3--7--7-7-7-7-7-7-7-7-7-7-7-7-7-7-7-7-7-7-----------------------|

C#|---------------------------------------------------------------------------|
G#|---------------------------------------------------------------------------|
E |---------------------------------------------------------------------------|
B |--2--2---3--3-3-3-3-3-3-3-3-3-3-3-3--3-3-3-3-------------------------------|
F#|--2--2---3--3-3-3-3-3-3-3-3-3-3-3-3--3-3-3-3-------------------------------|
B |--2--2---3--3-3-3-3-3-3-3-3-3-3-3-3--3-3-3-3-------------------------------|



************************************

| x   Dead note
| g   Grace note
| (n) Ghost note
| h   Hammer-on
| p   Pull-off
| r   Release
| >   Accented note
| t   Tapping
| b   Bend
| br  Bend release
| pb  Pre-bend
| pbr Pre-bend release
| /   Slide up
| \   Slide down
| ~   Vibrato
| s   Slap
| P   Pop
| PM  Palm mute
| TR  Trill
| N   Tremolo

************************************
Suggest correction
Give kudos to tab author, rate the tab!
1 2 3 4 5
comments
print report bad tab
guest
You may want to rate the tab now too:
select rating
Wanna post a correction for this tab? Suggest correction