Oops, an error
Loading. Please wait.

I Hate Hartley Bass Tab

version 1
version 1

Whole song

Interactive

3,927 views 3 this week
no commentswrite comment
1 2 3 4 5
please rate
add to favorites
launch autoscroll
font size
0
reset
guitar tuner
Autoscroll
slow
fast
+/-
esc
set tempo
stop
Help us to improve Ultimate-Guitar.com Take our survey!
×
Author
Difficulty
Tuning
novice
C G C F A D
-------------------------------------------------------------------------------
		      I HATE HARTLEY - The Amity Affliction
-------------------------------------------------------------------------------


Drop C,
Did this by ear, heres my cover, 
http://www.youtube.com/watch?v=L4qY4hCFVQE&feature=mfu_in_order&list=UL

Synth Intro

Intro bridge

F|--------------------------------------------------------------------------|
C|--------------------------------------------------------------------------|
G|--------------------------------------------------------------------------|
C|--000-0~-00-00-000---00000000-000-0~-00-00-000---00000000-----------------|

F|--------------------------------------------------------------------------|
C|--------------------------------------------------------------------------|
G|--------------------------------------------------------------------------|
C|--0~-1~-0~-4~-0~-1b~-00000000-000-0~-00-00-000-1-0-1b---------------------|


F|--------------------------------------------------------------------------|
C|--------------------------------------------------------------------------|
G|--------------------------------------------------------------------------|
C|--000-0~-00-00-000---00000000-000-0~-00-00-000---00000000-----------------|

F|--------------------------------------------------------------------------|
C|--------------------------------------------------------------------------|
G|--------------------------------------------------------------------------|
C|--0~-1~-0~-4~-0~-1b~-00000000-000-0~-00-00-000-00000000-------------------|

VERSE

x2
F|--------------------------------------------------------------------------|
C|--------------------------------------------------------------------------|
G|--------------------------------------------------------------------------|
C|--7777777777777777--33333333--0000--5555----------------------------------|

x2
F|--------------------------------------------------------------------------|
C|--------------------------------------------------------------------------|
G|--------------------------------------------------------------------------|
C|--3333~---0000~---77777777--55555555--------------------------------------|

Prechorus

Chorus

x2
F|--------------------------------------------------------------------------|
C|--------------------------------------------------------------------------|
G|--------------------------------------------------------------------------|
C|--33-33~--00-0-/10~--77-77~--55-55----------------------------------------|

x2
F|--------------------------------------------------------------------------|
C|--------------------------------------------------------------------------|
G|--^--^-^---^--^-----^-----^-^--^-^---^-^--^-------------------------------|
C|--33333333-0000-/10101010-77777777-55555555-------------------------------|

(* You Have to gallop here, which means u have to put emphasis where i have the ^
But you can here when Ahren does it in the song, or you can check my cover.)

After the chorus just:

F|------------------------------------|
C|------------------------------------|
G|------------------------------------|
C|-3~---------------------------------|

"Instead of trying to take my own life
It's one year on"
- No bass.

Then the Bridge ~ Breakdown. 

x2
F|--------------------------------------------------------------------------|
C|--------------------------------------------------------------------------|
G|--------------------------------------------------------------------------|
C|---000-----00-00-0-000-----00-00-0-000-----00-00-0-000-----00000000-------|

x2
F|--------------------------------------------------------------------------|
C|--------------------------------------------------------------------------|
G|--------------------------------------------------------------------------|
C|--0-0~-0-00-00--0-0~-0-00-00--0-0~-0-00-00--0-0~-0-00000000---------------|


(* you gotta get in time here, cos otherwise its just open strumming lol.
its fairly easy if u know the song well enough!_ :))

** Next is the cool guitar riff, just hold an open on the Low C.

Chorus

x2
F|--------------------------------------------------------------------------|
C|--------------------------------------------------------------------------|
G|--------------------------------------------------------------------------|
C|--33-33~--00-0-/10~--77-77~--55-55----------------------------------------|

x2
F|--------------------------------------------------------------------------|
C|--------------------------------------------------------------------------|
G|--^--^-^---^--^-----^-----^-^--^-^---^-^--^-------------------------------|
C|--33333333-0000-/10101010-77777777-55555555-------------------------------|

Outro

F|------------------------------------|
C|------------------------------------|
G|------------------------------------|
C|-33-33~-----------------------------|


----------------------------------------------------------------------------
| /  slide up
| \  slide down
| h  hammer-on
| p  pull-off
| ~  vibrato
| +  harmonic
| x  Mute note

- Cameron
Suggest correction new What's this?
You can suggest a correction to this tab. Community and Mods will review your correction and vote to approve or reject it.
comments
We did not receive enough feedback on this tab! Please rate:
print report bad tab
1 2 3 4 5
guest
You may want to rate the tab now too:
select rating
Please do not post tabs as comments. Select "correction" instead!