Oops, an error
Loading. Please wait.

Rip Foghorn Bass Tab

version 1
version 1

Whole song

Interactive

885 views 1 this week
no commentswrite comment
1 2 3 4 5
please rate
add to favorites
launch autoscroll
font size
0
reset
guitar tuner
Tab Pro tools
  • play this tab
  • loop segment
  • change instrument
  • show fretboard
  • metronome
×
Best way to learn
"Rip Foghorn"
Autoscroll
slow
fast
+/-
esc
set tempo
stop
Difficulty
Tuning
intermediate
C G C F A D
------------------------------------------------------------------------------
                             RIP FOGHORN - The Amity Affliction
------------------------------------------------------------------------------

Drop C

Intro

F|-------------------|
C|-------------------|
G|-------------------|
C|----- 0~ ----------|

Hold Until Double Kick comes in

Verse (Its never easy..)                                                  (its Never easy..)

F|--------------------------------------------------------------------------------------------|
C|--------------------------------------------------------------------------------------------|
G|--------------------------------------------------------------------------------------------|
C|--00000000000000000-0000000000000000-0000000000000000-0000000000000000-8888888888888888-----|

F|--------------------------------------------------------------------------------------------|
C|--------------------------------------------------------------------------------------------|
G|--------------------------------------------------------------------------------------------|
C|--8888888888888888-8888888888888888-8888888888888888~ --------------------------------------|

Pre Chorus (Its never easy to admit...)

F|--------------------------------------------------------------------------------------------|
C|--------------------------------------------------------------------------------------------|
G|--------------------------------------------------------------------------------------------|
C|--00-00-00-00-0000--88-88-88-88-8888-00-00-00-00-0000--88-88-88-88-881010-------------------|

F|--------------------------------------------------------------------------------------------|
C|--------------------------------------------------------------------------------------------|
G|--------------------------------------------------------------------------------------------|
C|--00-00-00-00-0000--88-88-88-88-8888--00-00-00-00-0000--88-88-88-888810101010---------------|


Chorus

F|--------------------------------------------------------------------------------------------|
C|--------------------------------------------------------------------------------------------|
G|--------------------------------------------------------------------------------------------|
C|--88888888888888-8\0-00000-0/10-10101010101010--88888888-00000000-1010101010101010-555555555|

    (Down in the...)
F|--------------------------------------------------------------------------------------------|
C|--------------------------------------------------------------------------------------------|
G|--------------------------------------------------------------------------------------------|
C|--88888888888888-8\0-00000-0/10-10101010101010--7777777/88888888-0000000-10101010101010-----|


F|-------------------|
C|-------------------|
G|-------------------|
C|--121212121212-----|


Post Chorus

F|----------------------------------|
C|----------------------------------|    x2
G|----------------------------------|
C|-----0~----3~-----8~--------5~----|


Breakdown
                                                     then..

F|------------------------------------------------|---|---------------|
C|------------------------------------------------|---|---------------|
G|------------------------------------------------|x4-|---------------|
C|---00-00-00-00-00000000---00-00-0----000-000----|---|-0-0-0000-0000-|


Chorus


Bridge

F|--------------------------|
C|--------------------------|
G|--------------------------|
C|--10~----5~----0~----0~---|

F|---------------------------------------------------------|
C|---------------------------------------------------------|
G|---------------------------------------------------------|
C|--10~--1010--10---10~--1010--10---0~--00-0---0~--00-0----|


F|--------------------------------------------------------------------|
C|--------------------------------------------------------------------|
G|--------------------------------------------------------------------|
C|--10~--1010--10---10~--1010--10---0~--00-0---10101010101010101010---|


Chorus

Outro

F|------------------------------------------------|---|---|
C|------------------------------------------------|---|---|
G|------------------------------------------------|x4-|---|
C|---00-00-00-00-00000000---00-00-0----000-000----|---|-0-|
comments
We did not receive enough feedback on this tab! Please rate:
print report bad tab
1 2 3 4 5
I want to post or [tab]
guest
You may want to rate the tab now too:
select rating
Please do not post tabs as comments. Select "correction" instead!