Oops, an error
Loading. Please wait.

Severance Tab

1,762 views 6 this week
no commentswrite comment
1 2 3 4 5
please rate
add to favorites
launch autoscroll
font size
0
reset
how to read this tab
guitar tuner
Tab Pro tools
  • play this tab
  • loop segment
  • change instrument
  • show fretboard
  • metronome
×
Best way to learn
"Severance"
Autoscroll
slow
fast
+/-
esc
set tempo
stop
Contributor
Difficulty
Tuning
intermediate
C# G# C# F# A# D#
-------------------------------------------------------------------------------
                             Severance - The Amity Affliction
-------------------------------------------------------------------------------
Tabbed by:Mitchimus21
Email:Mitchimus01@hotmail.com

Here's the severance cover,if you have any suggestions or corrections just email be Enjoy! :)

Tuning:Drop C Down Half A Step C# G# C# F# A# D#

Intro-Rythm Guitars

|---------------------------------------------------------------------------|
|----------7-----8--7--7----------------------------------------------------|
|------0--------------------------------------------------------------------|
|--------------------------------Repeat twice--until Lead comes in----------|
|--7-7---7--7-7---7--7-------------x2---------------------------------------|
|---------------------------------------------------------------------------|

0:06
|---------------------------------------------------------------------------|
|-------7------8--7---7--------------0------------5-------------------------|
|---0----------------------------0-------------0----------------------------|
|---------------------------------------------------------------------------|
|-5---5---5-5---5---5-------3-3----3---3-3--5-5--5--------------------------|
|---------------------------------------------------------------------------|

Lead part 0:04
|-----------19--14--15------------------------------------------------------|
|----8-7\3------------------------------------------------------------------|
|---------------------------------------------------------------------------|
|---------------------------------------------------------------------------|
|---------------------------------------------------------------------------|
|---------------------------------------------------------------------------|

0:21 Strumming the chords- should be easy to work out sturmming pattern
|---------------------------------------------------------------------------|
|---------------------------------------------------------------------------|
|---------------------------------------------------------------------------|
|--5p4--2----0-----5-----4-5--7--0--5p4-------------------------------------|
|-------2-x4-0-x4--5-x7--2----5--0-------Repeat again untill--0:48----------|
|-------2----0-----5-----2----5--0------------------------------------------|

0:48 now pick the bottom string fast up and down motion
|---------------------------------------------------------------------------|
|---------------------------------------------------------------------------|
|---------------------------------------------------------------------------|
|-------2---4/5-4-2-4------2--4/5-4-2-4---------55-44-22-44-----------------|
|-------2------------------2--------------------00-00-00-00-----------------|
|-2222222------------2222222--------------00000-----------------------------|

0:56
|---------------------------------------------------------------------------|
|---------------------------------------------------------------------------|
|---------------------------------------------------------------------------|
|-----------10-------------12-----------------------------------------------|
|-----------10-------------12-----------------------------------------------|
|--10-10-10-10----12-12-12-12-----------------------------------------------|

0:59
|---------------------------------------------------------------------------|
|---------------------------------------------------------------------------|
|---------------------------------------------------------------------------|
|-------2---4/5-4-2-4------2--4/5-4-2-4---------55-44-22-44-----------------|
|-------2------------------2--------------------00-00-00-00-----------------|
|-2222222------------2222222--------------00000-----------------------------|

1:08
|---------------------------------------------------------------------------|
|---------------------------------------------------------------------------|
|---------------------------------------------------------------------------|
|-----------10-------------12-----------------------------------------------|
|-----------10-------------12-----------------------------------------------|
|--10-10-10-10----12-12-12-12-----------------------------------------------|




1:10 again fast picking on the top string-cant work out how many their are of fast 
picking but listen to the song and you should get it!
|---------------------------------------------------------------------------|
|---------------------------------------------------------------------------|
|---------------------------------------------------------------------------|
|--------2----2--------2----2-------5---5-----0---0-------------------------|
|--------2----2--------2----2-------5---5-----0---0-Repeat while lead is in-|
|---222222--222---222222--222---55555-555--0000-000-------------------------|


1:16-Lead part- not 100% sure but its close enough
|---------------------------------------------------------------------------|
|---------------------------------------------------------------------------|
|---------------------------------------------------------------------------|
|-----------------7-5-4h5p4-----7-5-4--4h5----------------------------------|
|---5-7-5-7-5-7-5----------5--5---------------------------------------------|
|---------------------------------------------------------------------------|

Chorus:1:22- strumming pattern is easy to work out-  Repeat this twice
|---------------------------------------------------------------------------|
|---------------------------------------------------------------------------|
|---------------------------------------------------------------------------|
|--2-2-2222-2--2-2222-222----5------0---------------------------------------|
|--2-2-2222-2--2-2222-222----5-x4---0-x12-----------------------------------|
|--2-2-2222-2--2-2222-222----5------0---------------------------------------|

1:44
|---------------------------------------------------------------------------|
|---------------------------------------------------------------------------|
|------------------------------ Palm-Mute---falling out of touch----5----7--|
|-----2-----------------------2--22x22x---0-------------------------5----7--|
|-----2--I guess that I'm-----2--22x22x---0----------------------3333-5555--|
|-22222-------------------22222--22x22x---0---------------------------------|


1:55 back this
|---------------------------------------------------------------------------|
|---------------------------------------------------------------------------|
|---------------------------------------------------------------------------|
|-------2---4/5-4-2-4------2--4/5-4-2-4---------55-44-22-44-----------------|
|-------2------------------2--------------------00-00-00-00-----------------|
|-2222222------------2222222--------------00000-----------------------------|

2:03
|---------------------------------------------------------------------------|
|---------------------------------------------------------------------------|
|---------------------------------------------------------------------------|
|-----------10-------------12-----------------------------------------------|
|-----------10-------------12-----------------------------------------------|
|--10-10-10-10----12-12-12-12-----------------------------------------------|

2:05
|---------------------------------------------------------------------------|
|---------------------------------------------------------------------------|
|---------------------------------------------------------------------------|
|--------2----2--------2----2-------5---5-----0---0-------------------------|
|--------2----2--------2----2-------5---5-----0---0-------------------------|
|---222222--222---222222--222---55555-555--0000-000-------------------------|


2:12-Lead
|---------------------------------------------------------------------------|
|---------------------------------------------------------------------------|
|---------------------------------------------------------------------------|
|-----------------7-5-4h5p4-----7-5-4--4h5----------------------------------|
|---5-7-5-7-5-7-5----------5--5---------------------------------------------|
|---------------------------------------------------------------------------|


2:17-Chorus again---The silence just became disconcerting
|---------------------------------------------------------------------------|
|---------------------------------------------------------------------------|
|---------------------------------------------------------------------------|
|--2-2-2222-2--2-2222-222----5------0---------------------------------------|
|--2-2-2222-2--2-2222-222----5-x4---0-x12-----------------------------------|
|--2-2-2222-2--2-2222-222----5------0---------------------------------------|

2:39
|---------------------------------------------------------------------------|
|---------------------------------------------------------------------------|
|---------------------------------------------------------------------------|
|--2------------------------------------------------------------------------|
|--2--Keep playing until 2:51-----------------------------------------------|
|--2------------------------------------------------------------------------|

2:51- Palm mute this- again alternative picking
|---------------------------------------------------------------------------|
|---------------------------------------------------------------------------|
|---------------------------------------------------------------------------|
|-------2-----2-----5----0--\-\-\-------------------------------------------|
|-------2-----2-----5----0--\-\-\-Slide down--------------------------------|
|--222222--2222--5555--000--\-\-\-------------------------------------------|

2:57-Severance!!!!!Severance
|------------------------------------10------10-----------------------------|
|---------------------------------------8-7-----8-7-------------------------|
|---------------------------------------------------------------------------|
|-------2-------3/7-5-4---4-----0-------------------------------------------|
|-------2---------------5-------0-------------------------------------------|
|--222222--2222--------------0000-------------------------------------------|


3:04-Repeat again-Severance until 3:22
|------------------------------------10------10-----------------------------|
|---------------------------------------8-7-----8-7-------------------------|
|---------------------------------------------------------------------------|
|-------2-------3/7-5-4---4-----0-------------------------------------------|
|-------2---------------5-------0-------------------------------------------|
|--222222--2222--------------0000-------------------------------------------|


3:22
|---------------------------------------------------------------------------|
|---------------------Not sure if that part's right but oh well-------------|
|---------------------------------------------------------------------------|
|--2-2-2-2-2-2-2-----7-5-4-------4------------------------------------------|
|--2-2-2-2-2-2-2-----------7-5-7--------------------------------------------|
|--2-2-2-2-2-2-2------------------------------------------------------------|

3:27- Chorus -Repeat twice
|---------------------------------------------------------------------------|
|---------------------------------------------------------------------------|
|---------------------------------------------------------------------------|
|--2-2-2222-2--2-2222-222----5------0---------------------------------------|
|--2-2-2222-2--2-2222-222----5-x4---0-x12-----------------------------------|
|--2-2-2222-2--2-2222-222----5------0---------------------------------------|

3:48-Rythm keeps going
Strumming isn't exactly right on here but its easy enough to work out
|---------------------------------------------------------------------------|
|---------------------------------------------------------------------------|
|--5-5-5-5-5-5-5--7-7-7-7-7-7-----------------------------------------------|
|--5-5-5-5-5-5-5--7-7-7-7-7-7-------2-2-2-2-2-2--5-5-5-5-5-5----------------|
|--3-3-3-3-3-3-3--5-5-5-5-5-5-------2-2-2-2-2-2--5-5-5-5-5-5----------------|
|-----------------------------------2-2-2-2-2-2--5-5-5-5-5-5----------------|

3:59-Lead comes in-Keep playing untill 4:12
|--10--------10---------10--------10------10------10------------------------|
|-----8-7-8-----8-7-8------8-7-8----8-7-8---8-7-8---8-7-8-------------------|
|---------------------------------------------------------------------------|
|---------------------------------------------------------------------------|
|---------------------------------------------------------------------------|
|---------------------------------------------------------------------------|

4:12-ending
|---------------------------------------------------------------------------|
|---------------------------------------------------------------------------|
|-------4--------9----------------------------------------------------------|
|---5--5--5--7--7-7---2-----------------------------------------------------|
|---5--------7--------2-Let-ring--------------------------------------------|
|---5--------7--------2-----------------------------------------------------|



************************************

| /   slide up
| \   slide down
| h   hammer-on
| p   pull-off
| ~   vibrato
| +   harmonic
| x   Mute note
| b   Bend
| pb  Pre-bend
| br  Bend release
| pbr Pre-bend release
| brb Bend release bend

************************************
comments
We did not receive enough feedback on this tab! Please rate:
print report bad tab
1 2 3 4 5
I want to post or [tab]
guest
You may want to rate the tab now too:
select rating
Please do not post tabs as comments. Select "correction" instead!