Oops, an error
Loading. Please wait.

Shine On bass

937 views 12 this week
no commentswrite comment
1 2 3 4 5
2 more votes to show rating
add to favorites
×
Save as Personal and add changes to this tab that will be seen only by you. Learn more ›
×
You can save this tab as Personal to edit and correct it or add notes. All changes will be seen only by you. Learn more »
launch autoscroll
font size
0
reset
guitar tuner
edit
Autoscroll
slow
fast
+/-
esc
set tempo
stop
[Intro]

F|-------------------------------------------------------------------------------------------|
C|-------------------------------------------------------------------------------------------|
G|-------------------------------------------------------------------------------------------|
C|12-0-12-0~-12-0-12-0~-12-0-12-0-12-0-12-0~-12-0-12-0~--12-0-12-0-10-10-10-10~-10-10-10-10~-|

F|---------------------------------------------------------------------------|
C|---------------------------------------------------------------------------|
G|---------------------------------------------------------------------------|
C|10-10-10-10-8-8-8-8~-8-8-8-8~-8-8-8-8~------------------------------------------|

End with
F|---------------------------------------------------------------------------|
C|---------------------------------------------------------------------------|
G|---------------------------------------------------------------------------|
C|10--10--10--8~~~~~~~~~~-------------------------------------------------|



[Verse]

F|------------------------------------------------------------------|
C|------------------------------------------------------------------|
G|------------8--------------8-------8-8--7-----8-8--7--------------|
C|12-12-14-14----12-12-14-14-----8-8--------8-8---------------------|

[Pre-Chorus]

F|---------------------------------------------------------------|
C|---------------------------------------------------------------|
G|---------------------------------------------------------------|
C|8~~~8~~~8~~~~~~~10~~~10~~~10~~~~~~12~~~12~~~12~~~~~~7--7--7----|


[Chorus]

F|--------------------------------------------------------------------------------|
C|--------------------------------------------------------------------------------|
G|--------------------------------------------------------------------------------|
C|8--8--8--8/3--3-3-3--3-3-3-3--0--0--0--0/10--10-10-10--10-10-10-10--------------|

F|-----------------------------------------------------------------------------|
C|-----------------------------------------------------------------------------|
G|-----------------------------------------------------------------------------|
C|8--8--8--8/3--3-3-3--3-3-3-3--10--10--10--10-10--10--10--10------------------|

F|--------------------------------------------------------------------------------|
C|--------------------------------------------------------------------------------|
G|--------------------------------------------------------------------------------|
C|8--8--8--8/3--3-3-3--3-3-3-3--0--0--0--0/10--10-10-10--10-10-10-10--------------|

F|-----------------------------------------------------------------------------|
C|-----------------------------------------------------------------------------|
G|-----------------------------------------------------------------------------|
C|8--8--8--8/3--3-3-3--3-3-3-3--10--10--10--10-10--10--10--10------------------| 

[Intro]

F|-------------------------------------------------------------------------------------------|
C|-------------------------------------------------------------------------------------------|
G|-------------------------------------------------------------------------------------------|
C|12-0-12-0~-12-0-12-0~-12-0-12-0-12-0-12-0~-12-0-12-0~--12-0-12-0-10-10-10-10~-10-10-10-10~-|

F|---------------------------------------------------------------------------|
C|---------------------------------------------------------------------------|
G|---------------------------------------------------------------------------|
C|10-10-10-10-8-8-8-8~-8-8-8-8~-8-8-8-8~------------------------------------------|

End with
F|---------------------------------------------------------------------------|
C|---------------------------------------------------------------------------|
G|---------------------------------------------------------------------------|
C|10--10--10--8~~~~~~~~~~-------------------------------------------------|



[Verse]

F|------------------------------------------------------------------|
C|------------------------------------------------------------------|
G|------------8--------------8-------8-8--7-----8-8--7--------------|
C|12-12-14-14----12-12-14-14-----8-8--------8-8---------------------|

[Pre-Chorus]

F|---------------------------------------------------------------|
C|---------------------------------------------------------------|
G|---------------------------------------------------------------|
C|8~~~8~~~8~~~~~~~10~~~10~~~10~~~~~~12~~~12~~~12~~~~~~7--7--7----|


[Chorus]

F|--------------------------------------------------------------------------------|
C|--------------------------------------------------------------------------------|
G|--------------------------------------------------------------------------------|
C|8--8--8--8/3--3-3-3--3-3-3-3--0--0--0--0/10--10-10-10--10-10-10-10--------------|

F|-----------------------------------------------------------------------------|
C|-----------------------------------------------------------------------------|
G|-----------------------------------------------------------------------------|
C|8--8--8--8/3--3-3-3--3-3-3-3--10--10--10--10-10--10--10--10------------------|

F|--------------------------------------------------------------------------------|
C|--------------------------------------------------------------------------------|
G|--------------------------------------------------------------------------------|
C|8--8--8--8/3--3-3-3--3-3-3-3--0--0--0--0/10--10-10-10--10-10-10-10--------------|

F|-----------------------------------------------------------------------------|
C|-----------------------------------------------------------------------------|
G|-----------------------------------------------------------------------------|
C|8--8--8--8/3--3-3-3--3-3-3-3--10--10--10--10-10--10--10--10------------------| 


[Bridge]

F|-----------------------------------------------------------------------------------------------------------|
C|-----------------------------------------------------------------------------------------------------------|
G|--------------3-5------------------5----=--------------333-555----------------5----------------------------|
C|-0-0-0--0-0-0----0----0-0-0--0-0-0---0=---0-0-0--0-0-0---------0-0-0--0-0-0----------0-0-0--0-0-0----0-0-0-|

F|-----------------------------------------------------------------------------------------------------------|
C|-----------------------------------------------------------------------------------------------------------|
G|-------------------------------------=---------------------------------------------------------------------|
C|---0-0-0--0-0-0--0-0-0-~~~~0-0-0-0--0-0-0-0----------------------------------------------------------------|

[Chorus]

F|--------------------------------------------------------------------------------|
C|--------------------------------------------------------------------------------|
G|--------------------------------------------------------------------------------|
C|8--8--8--8/3--3-3-3--3-3-3-3--12--12--12--12/10--10-10-10--10-10-10-10----------|

F|-----------------------------------------------------------------------------|
C|-----------------------------------------------------------------------------|
G|-----------------------------------------------------------------------------|
C|8--8--8--8/3--3-3-3--3-3-3-3--10--10--10--10-10--10--10--10------------------|

F|--------------------------------------------------------------------------------|
C|--------------------------------------------------------------------------------|
G|--------------------------------------------------------------------------------|
C|8--8--8--8/3--3-3-3--3-3-3-3--12--12--12--12/10--10-10-10--10-10-10-10----------|

F|-----------------------------------------------------------------------------|
C|-----------------------------------------------------------------------------|
G|-----------------------------------------------------------------------------|
C|8--8--8--8/3--3-3-3--3-3-3-3--10--10--10--10-10--10--10--10------------------| 

F|--------------------------------------------------------------------------------|
C|--------------------------------------------------------------------------------|
G|--------------------------------------------------------------------------------|
C|8--8--8--8/3--3-3-3--3-3-3-3--12--12--12--12/10--10-10-10--10-10-10-10----------|

F|-----------------------------------------------------------------------------|
C|-----------------------------------------------------------------------------|
G|-----------------------------------------------------------------------------|
C|8--8--8--8/3--3-3-3--3-3-3-3--10--10--10--10-10--10--10--10------------------|

F|--------------------------------------------------------------------------------|
C|--------------------------------------------------------------------------------|
G|--------------------------------------------------------------------------------|
C|8--8--8--8/3--3-3-3--3-3-3-3--12--12--12--12/10--10-10-10--10-10-10-10----------|

F|-----------------------------------------------------------------------------|
C|-----------------------------------------------------------------------------|
G|-----------------------------------------------------------------------------|
C|8--8--8--8/3--3-3-3--3-3-3-3--10--10--10--10-10--10--10--10------------------| 




Thanks for viewing!


************************************

| x   Dead note
| g   Grace note
| (n) Ghost note
| h   Hammer-on
| p   Pull-off
| r   Release
| >   Accented note
| t   Tapping
| b   Bend
| br  Bend release
| pb  Pre-bend
| pbr Pre-bend release
| /   Slide up
| \   Slide down
| ~   Vibrato
| s   Slap
| P   Pop
| PM  Palm mute
| TR  Trill
| N   Tremolo

************************************

            
            
Suggest correction
Creating personal tab
Creating personal tab
You can edit any tab online and save it as your Personal.

You can edit, replace or remove any tab part or add personal notes – all changes will be seen only by you.

Personal tabs can be accessed anytime from any device, even offline.
Learn more »
Give kudos to tab author, rate the tab!
1 2 3 4 5
comments
print report bad tab
guest
You may want to rate the tab now too:
select rating
Wanna post a correction for this tab? Suggest correction