Oops, an error
Loading. Please wait.

Stairway To Hell Tab

version 2
version 2

Whole song

Interactive

2,639 views 6 this week
2 commentsread comments
1 2 3 4 5
accurate
x 3
add to favorites
launch autoscroll
font size
0
reset
how to read this tab
guitar tuner
Autoscroll
slow
fast
+/-
esc
set tempo
stop
Help us to improve Ultimate-Guitar.com Take our survey!
×
Author
Difficulty
novice
Stairway To Hell - The Amity Affliction
[Tabbed by Bridgette]

This is my very first attempt at tabbing a whole song and what not 
so I'll apologize if it's not 100% correct.
Stairway To Hell seemed like a fairly easy song 
so I was surprised when I found that there was only one tab sheet up 
(which didn't sound that accurate to me… I may or may not be wrong)
But yes, it provoked me to create an account and submit this.
Enjoy!


Intro 
D#|--------------------------------|------------------------------------|
A#|---6--------5----------5--6---3-|----5-----5-----5---6---8-----------|
F#|------7---------5---------------|--5---5-----5-----------------------|
C#|--------------------------------|------------------------------------|
G#|---5----(5)-3------(3)-3------1-|--3-----3-------3---0---------------|
C#|--------------------------------|------------------------8-----------|

 
D#|--------------------------------|------------------------------------|
A#|---6--------5----------5--6---3-|----5-----5-------------------------|
F#|------7---------5---------------|--5---5-----5---5---7---7-----------|
C#|--------------------------------|------------------------------------|
G#|---5----(5)-3------(3)-3------1-|--3-----3-------3-------------------|
C#|--------------------------------|------------------------------------|

 
   [sorry, I got a bit lazy, you'll have to figure out the strumming]
D#|--------------------------------|------------------------------------|
A#|--------------------------------|------------------------------------|
F#|--------------------------------|------------------------------------|
C#|---0---10---8-----7---10---12---|---0---10---12-----7---10---0-------| 
G#|---0---10---8-----7---10---12---|---0---10---12-----7---10---0-------|
C#|---0---10---8-----7---10---12---|---0---10---12-----7---10---0-------|


   [there are parts here that are too low to hear  or non-existent 
    so it's basically whatever fits…
D#|---------8------------8---------|------------------------------------|
A#|----5-6-----6-5---5-6---6-5-----|----5-6--8--6-5---5-6---------------|
F#|--7-------------7---------------|--7-------------7-----9-7-5---------|
C#|--------------------------------|------------------------------------|
G#|--------------------------------|------------------------------------| 
C#|--------------------------------|------------------------------------|


      …or alternatively, you can repeat the bar below 8 times]
D#|----------8----------------------------------------------------------|
A#|-----5-6-----6-5-----------------------------------------------------|
F#|--7-------------------[x8]-------------------------------------------|
C#|---------------------------------------------------------------------|
G#|---------------------------------------------------------------------|
C#|---------------------------------------------------------------------|


D#|--------------------------------------------------|
A#|--------------------------------------------------|
F#|--------------------------------------------------|
C#|---88888888-7777-10-10-10-12---0-0--00000--12-10--|
G#|---88888888-7777-10-10-10-12---0-0--00000--12-10--|
C#|---88888888-7777-10-10-10-12---0-0--00000--12-10--|


------------------------------------------------------|
------------------------------------------------------|
------------------------------------------------------|
-0-0--00000--10---|------|--88888888-7777--7----[10]--|
-0-0--00000--10---|--x-3-|--88888888-7777--7-or-[10]--|
-0-0--00000--10---|------|--88888888-7777--7----[10]--|

D#|--------------------------------|--------------------------------------------------|
A#|--------------------------------|--------------------------------------------------|
F#|--------------------------------|--------------------------------------------------|
C#|---0---10---8-----7---10---12---|---0---10---12-----7---10---0-0-0-0-0-0-0-0-------| 
G#|---0---10---8-----7---10---12---|---0---10---12-----7---10---0-0-0-0-0-0-0-0-------|
C#|---0---10---8-----7---10---12---|---0---10---12-----7---10---0-0-0-0-0-0-0-0-------|


D#|-------------------------------------------------|
A#|-------------------------------------------------|
F#|-------------------------------------------------|
C#|----------0-0-0-00-0-0-0----------0-0-0-00-0-0-0-|
G#|----------0-0-0-00-0-0-0----------0-0-0-00-0-0-0-|
C#|---10-12--0-0-0-00-0-0-0---14/15--0-0-0-00-0-0-0-|

----------------------------------------------|
----------------------------------------------|
----------------------------------------------|
-----55555555--3333--10-10-10-10--------------|
-----55555555--3333--10-10-10-10-[x3]---------|
-8---55555555--3333--10-10-10-10--------------|



D#|---------------------------------------------------------------------|
A#|---------------------------------------------------------------------|
F#|---------------------------------------------------------------------|
C#|----------00-0-0-0-0-0-0-0-0----55555555--3333--10-10-10-10----------|
G#|----------00-0-0-0-0-0-0-0-0----55555555--3333--10-10-10-10----------|
C#|---10-12--00-0-0-0-0-0-0-0-0----55555555--3333--10-10-10-10----------|
             (^ may be slightly inaccurate)

      [play softly first time; after that, play normally]  
D#|--------------------------------------------------|
A#|--------------------------------------------------|
F#|--------------------------------------------------|
C#|---88888888-7777-10-10-10-12---0-0--00000--12-10--|
G#|---88888888-7777-10-10-10-12---0-0--00000--12-10--|
C#|---88888888-7777-10-10-10-12---0-0--00000--12-10--|


------------------------------------------------------|
------------------------------------------------------|
------------------------------------------------------|
-0-0--00000--10---|------|--88888888-7777--7----[10]--|
-0-0--00000--10---|--x-3-|--88888888-7777--7-or-[10]--|
-0-0--00000--10---|------|--88888888-7777--7----[10]--|






D#|--------------------------------|------------------------------------|
A#|---6--------5----------5--6---3-|----5-----5-------------------------|
F#|------7---------5---------------|--5---5-----5---5---7---7-----------|
C#|--------------------------------|------------------------------------|
G#|---5----(5)-3------(3)-3------1-|--3-----3-------3-------------------|
C#|--------------------------------|------------------------------------|


D#|---------------------------------------------------------------------|
A#|---------------------------------------------------------------------|
F#|---------------------------------------------------------------------|
C#|---0----10----8----------7----10----12-------------------------------|
G#|---0----10----8----------7----10----12-------------------------------|
C#|---0----10----8----------7----10----12-------------------------------|


D#|---------------------------------------------------------------------|
A#|---------------------------------------------------------------------|
F#|---------------------------------------------------------------------|
C#|---0----10----8----------7----10----0-0-0-0-0-0-0-0-0----------------|
G#|---0----10----8----------7----10----0-0-0-0-0-0-0-0-0----------------|
C#|---0----10----8----------7----10----0-0-0-0-0-0-0-0-0----------------|

   
D#|----------------------------------------------------|
A#|----------------------------------------------------|
F#|--------------------------------14ph----------------|
C#|---0----10----8----7--------------------------------|
G#|---0----10----8----7----[x4]------------------------|
C#|---0----10----8----7--------------------------------|
     (^pause after playing this twice, then continue)

[shown below is at least one guitar part]
D#|-------------------------------------------------------------------------|
A#|-------------------------------------------------------------------------|
F#|-------------------------------------------------------------------------|
C#|----------0000-0000-0-0000-0000-0-0000-0000-0--8-8-8--5-5-5---[x3]-------|
G#|----------0000-0000-0-0000-0000-0-0000-0000-0--8-8-8--5-5-5--------------|
C#|----------0000-0000-0-0000-0000-0-0000-0000-0--8-8-8--5-5-5--------------|


D#|------------------------------------------------------|
A#|------------------------------------------------------|
F#|------------------------------------------------------|
C#|----------0000-0000-0-0000-0000-0-0000-0000-0---------| 
G#|----------0000-0000-0-0000-0000-0-0000-0000-0---------|
C#|----------0000-0000-0-0000-0000-0-0000-0000-0---------|

continue until end of song.





Taking the time to rate this tab would be greatly appreciated.
^-^ it indicates whether I've helped you guys or not!

Bridgette.
Suggest correction
What's this?
You can suggest a correction to this tab. Community and Mods will review your correction and vote to approve or reject it.
comments
We did not receive enough feedback on this tab! Please rate:
print report bad tab
1 2 3 4 5
2 comments total.
0 reply
b4mvthrasher 191 wrote on June 15 2011, 03:27 am

Sounds good Bridge!

-Cam ;)

0 reply
Bridgybot 59 wrote on July 5 2011, 11:05 am

Aw, thanks Camcam ;D
You're the best!

guest
You may want to rate the tab now too:
select rating
Please do not post tabs as comments. Select "correction" instead!