Oops, an error
Loading. Please wait.

Straight Up Tab

1,430 views 3 this week
no commentswrite comment
1 2 3 4 5
please rate
add to favorites
launch autoscroll
font size
0
reset
how to read this tab
guitar tuner
Tab Pro tools
  • play this tab
  • loop segment
  • change instrument
  • show fretboard
  • metronome
Autoscroll
slow
fast
+/-
esc
set tempo
stop
Contributor
Difficulty
Tuning
novice
C G C F A D
tab by sam and jordan :)  again
check out our fruity lexia tab and rate
we have written half the amity tabs here. so write some more tabs.
D---------------------------------------------------------------|
A --------------------------------------------------------------|
F --------------------------------------------------------------|
C –-5------------1~---12----------------------------------------| x2
G --5—x28--------1~---10-x16------------------------------------|
C --5------8-7-3-1~---10----------------------------------------|


D-----------------------------------------------------------------|
A ----------------------------------------------------------------|
F ----------------------------------------------------------------|
C --5--5-5--5-5--5--5-5--5-5--5--5-5--5-5--5--5-5-------1~-12-----|x2
G --5--5-5--5-5--5--5-5--5-5--5--5-5--5-5--5--5-5-------1~-10-x16-|
C --5--5-5--5-5--5--5-5--5-5--5--5-5--5-5--5--5-5-8-7-3-1~-10-----|


D-----------------------------------------------------------------|
A ----------------------------------------------------------------|
F ----------------------------------------------------------------|
C --5--5-8--8-7-5-3-5-5-5-5-5-1~----------------------------------|
G ----------------------------1~----------------------------------|
C ----------------------------1~----------------------------------|


D-----------------------------------------------------------------|
A ----------------------------------------------------------------|
F ----------------------------------------------------------------|
C --12------5----3----1----12----3----1~--------------------------|
G --10-x16--5-x8-3-x8-1-x8-10-x8-3-x8-1~--------------------------|
C --10------5----3----1----10----3----1~--------------------------|


D-------------------------------------------------------------------|
A ------------------------------------------------------------------|
F ------------------------------------------------------------------|
C --5--5-5--5-5--5--5-5--5-5--5--5-5--5-5--5---1-1--1-1--1-1--------|
G --5--5-5--5-5--5--5-5--5-5--5--5-5--5-5--5---1-1--1-1--1-1--------|
C --5--5-5--5-5--5--5-5--5-5--5--5-5--5-5--5---1-1--1-1--1-1--------|


D--------------------------------------------------------------------|
A -------------------------------------------------------------------|
F -------------------------------------------------------------------|
C --12-12--12-12--12-12---5-5--5-5--5-5---5-5--5-5--5-5--------------|
G --10-10--10-10--10-10---5-5--5-5--5-5---5-5--5-5--5-5--------------|
C --10-10--10-10--10-10---5-5--5-5--5-5---5-5--5-5--5-5--------------|


D------------------------------------------------------------------|
A -----------------------------------------------------------------|
F -----------------------------------------------------------------|
C --1-1--1-1--1-1---12-12--12-12--12-12--5-5--5-5--5-5-------------|
G --1-1--1-1--1-1---10-10--10-10--10-10--5-5--5-5--5-5-------------|
C --1-1--1-1--1-1---10-10--10-10--10-10--5-5--5-5--5-5-------------|

D-------------------------------------------------------------------|
A ------------------------------------------------------------------|
F ------------------------------------------------------------------|
C --5-5--5-5--5-5---1~---12~--5--5--8-8-7-5-3--5-5-5-5---1----------|
G --5-5--5-5--5-5---1~---10~-----------------------------1----------|
C --5-5--5-5--5-5---1~---10~-----------------------------1----------|

D-------------------------------------------------------------------|
A ------------------------------------------------------------------|
F ------------------------------------------------------------------|
C --------5----3----1----12----3----1~------------------------------|
G --------5-x8-3-x8-1x16-10-x8-3-x8-1~------------------------- X 2-|
C --------5----3----1----10----3----1~------------------------------|

  D------------------------------------------------------------------|
A -------------------------------------------------------------------|
F -------------------------------------------------------------------|
C --1---------------12---------------1-----------12------------------|
G --1---------------10---------------1-----------10------------------|
C --1---------------10---------------1-----------10------------------|

  D---------------------------------------------------------------|
A ----------------------------------------------------------------|
F ----------------------------------------------------------------|
C --1---------------12--------------------------------------------|
G --1---------------10--------------------------------------------|
C --1---------------10--------------------------------------------|

   Bit of lead guitar
    D -----------------------------------8----------------------------|
A --8-11-10-11-10-8----8-11-10-11-10---11-10-11-----------------------|
F --------------------------------------------------------------------|
C --------------------------------------------------------------------|
G --------------------------------------------------------------------|
C --------------------------------------------------------------------|

  D------------------------------------8----------------------------|
A ---8-11-10-11-10~---8-11-10-11-10----11-10-11-10------------------|
F ------------------------------------------------------------------|
C ------------------------------------------------------------------|
G –-----------------------------------------------------------------|
C ------------------------------------------------------------------|


  D------------------13----------------8----------------------------|
A ---8-11-10-11-10-----8-11-10-11-10----11-10-11-8~-----------------|
F ------------------------------------------------------------------|
C ------------------------------------------------------------------|
G –-----------------------------------------------------------------|
C ------------------------------------------------------------------|

Both guitars


  D--10-8-----------------------------------------------------------|
A --------11-10-----------------------------------------------------|
F ----------------10--------------------10-12-----------------------|
C -------------------12-10-12-----10-12--------10-12----------------|
G –-----------------------------------------------------------------|
C ------------------------------------------------------------------|

  D-----10-8-8-13-15-15-17-17~--------------------------------------|
A ------------------------------------------------------------------|
F ------------------------------------------------------------------|
C ------------------------------------------------------------------|
G –-----------------------------------------------------------------|
C ------------------------------------------------------------------|

D---------------------------------------------------------------------|
A --------------------------------------------------------------------|
F --------------------------------------------------------------------|
C ---12-12-12-12-12-12--------12--12--12----------12--12-12-----------|
G ---10-10-10-10-10-10--------10--10--10---X3-----10--12-10-----------|
C ---10-10-10-10-10-10--------10--10--10----------10--10-10-----------|
Guitar 2
D------------------------------------------------------------------|
A -----------------------------------------------------------------|
F ---12-12-12-12-12-12--------12--12--12-----------12--12-12-------|
C ---10-10-10-10-10-10--------10--10--10----x3-----10--10-10-------|
G ---10-10-10-10-10-10--------10--10--10-----------10--10-10-------|
C -----------------------------------------------------------------|

Both
D-----------------------------------------------------------------|
A ----------------------------------------------------------------|
F ----------------------------------------------------------------|
C --1-1-1-1-1-1---1-1-1-------12-12-12-12-12-12-------------------| x5
G --1-1-1-1-1-1---1-1-1—x3----10-10-10-10-10-10-—-----------------|
C --1-1-1-1-1-1---1-1-1-------10-10-10-10-10~10-------------------|

D-----------------------------------|
A ----------------------------------|
F ----------------------------------|
C --1-------------------------------|
G --1-------------------------------|
C --1-------------------------------|
comments
We did not receive enough feedback on this tab! Please rate:
print report bad tab
1 2 3 4 5
I want to post or [tab]
guest
You may want to rate the tab now too:
select rating
Please do not post tabs as comments. Select "correction" instead!