Oops, an error
Loading. Please wait.

This Could Be Heartbreak bass

version 1
version 1

Whole song

Interactive

1,309 views 24 this week
1 commentread comment
1 2 3 4 5
2 more votes to show rating
add to favorites
×
Save as Personal and add changes to this tab that will be seen only by you. Learn more ›
×
You can save this tab as Personal to edit and correct it or add notes. All changes will be seen only by you. Learn more »
launch autoscroll
font size
0
reset
guitar tuner
edit
Autoscroll
slow
fast
+/-
esc
set tempo
stop
Author
[Intro]

E |---------------------------------------------------------------------------|
B |---------------------------------------------------------------------------|
F#|--5-5-3-3-3--0-0-1-1-1--5-5-3-3-3--0-0-0-1-1-1-----------------------------|
B |---------------------------------------------------------------------------|

E |---------------------------------------------------------------------------|
B |---------------------------------------------------------------------------|
F#|--5-5-3-3-3--0-0-1-1-1--5-5-3-3-3--0-0-0-1-1-1-----------------------------|
B |---------------------------------------------------------------------------|


[Verse]

Comes in during 2nd half of verse

E |---------------------------------------------------------------------------|
B |---------------------------------------------------------------------------|
F#|---------------------------------------------------------------------------|
B |-10-10---10--10-10-10-10-10-10---10-10---10-8------------------------------|

E |---------------------------------------------------------------------------|
B |---------------------------------------------------------------------------|
F#|---------------------------------------------------------------------------|
B |-10-10---10--10-10-10-10-10-10---10-10---10-8------------------------------|


[Pre-Chorus]

E |---------------------------------------------------------------------------|
B |---------------------------------------------------------------------------|
F#|-0-0-0-0-0-0-0-0-4-4-4-4-4-4-4-4-2-2-2-2-2-2-2-2---------------------------|
B |---------------------------------------------------------------------------|

E |---------------------------------------------------------------------------|
B |---------------------------------------------------------------------------|
F#|-0-0-0-0-0-0-0-0-4-4-4-4-4-4-4-4-2-2-2-2-2-2-2-2---------------------------|
B |---------------------------------------------------------------------------|


[Chorus]

E |---------------------------------------------------------------------------|
B |---------------------------------------------------------------------------|
F#|--5-5-3-3-3--0-0-1-1-1--5-5-3-3-3--0-0-0-1-1-1-----------------------------|
B |---------------------------------------------------------------------------|

E |---------------------------------------------------------------------------|
B |---------------------------------------------------------------------------|
F#|--5-5-3-3-3--0-0-1-1-1--5-5-3-3-3--0-0-0-1-1-1-----------------------------|
B |---------------------------------------------------------------------------|

E |---------------------------------------------------------------------------|
B |---------------------------------------------------------------------------|
F#|--5-5-3-3-3--0-0-1-1-1--5-5-3-3-3--0-0-0-1-1-1-----------------------------|
B |---------------------------------------------------------------------------|

E |---------------------------------------------------------------------------|
B |---------------------------------------------------------------------------|
F#|--5-5-3-3-3--0-0-1-1-1--5-5-3-3-3--0-0-0-1-1-1-----------------------------|
B |---------------------------------------------------------------------------|


[Verse]

Comes in during beginning of verse

E |---------------------------------------------------------------------------|
B |---------------------------------------------------------------------------|
F#|---------------------------------------------------------------------------|
B |-10-10---10--10-10-10-10-10-10---10-10---10-8------------------------------|

E |---------------------------------------------------------------------------|
B |---------------------------------------------------------------------------|
F#|---------------------------------------------------------------------------|
B |-10-10---10--10-10-10-10-10-10---10-10---10-8------------------------------|

E |---------------------------------------------------------------------------|
B |---------------------------------------------------------------------------|
F#|---------------------------------------------------------------------------|
B |-0-0---0--0-0-0-0--0--0-0-0-0--0--0-0---0--0-0-0-0--0--0-0-0-0-------------|

E |---------------------------------------------------------------------------|
B |---------------------------------------------------------------------------|
F#|---------------------------------------------------------------------------|
B |-10-10---10--10-10-10-10-10-10---10-10---10-8------------------------------|


[Pre-Chorus]

E |---------------------------------------------------------------------------|
B |---------------------------------------------------------------------------|
F#|-0-0-0-0-0-0-0-0-4-4-4-4-4-4-4-4-2-2-2-2-2-2-2-2---------------------------|
B |---------------------------------------------------------------------------|

E |---------------------------------------------------------------------------|
B |---------------------------------------------------------------------------|
F#|-0-0-0-0-0-0-0-0-4-4-4-4-4-4-4-4-2-2-2-2-2-2-2-2---------------------------|
B |---------------------------------------------------------------------------|


[Chorus]

E |---------------------------------------------------------------------------|
B |---------------------------------------------------------------------------|
F#|--5-5-3-3-3--0-0-1-1-1--5-5-3-3-3--0-0-0-1-1-1-----------------------------|
B |---------------------------------------------------------------------------|

E |---------------------------------------------------------------------------|
B |---------------------------------------------------------------------------|
F#|--5-5-3-3-3--0-0-1-1-1--5-5-3-3-3--0-0-0-1-1-1-----------------------------|
B |---------------------------------------------------------------------------|

E |---------------------------------------------------------------------------|
B |---------------------------------------------------------------------------|
F#|--5-5-3-3-3--0-0-1-1-1--5-5-3-3-3--0-0-0-1-1-1-----------------------------|
B |---------------------------------------------------------------------------|

E |---------------------------------------------------------------------------|
B |---------------------------------------------------------------------------|
F#|--5-5-3-3-3--0-0-1-1-1--5-5-3-3-3--0-0-0-1-1-1-----------------------------|
B |---------------------------------------------------------------------------|


No bass during bridge

[Buildup]

E |---------------------------------------------------------------------------|
B |---------------------------------------------------------------------------|
F#|--5-5-3-3-3--0-0-1-1-1--5-5-3-3-3--0-0-0-1-1-1-----------------------------|
B |---------------------------------------------------------------------------|

[Chorus]

E |---------------------------------------------------------------------------|
B |---------------------------------------------------------------------------|
F#|--5-5-3-3-3--0-0-1-1-1--5-5-3-3-3--0-0-0-1-1-1-----------------------------|
B |---------------------------------------------------------------------------|

E |---------------------------------------------------------------------------|
B |---------------------------------------------------------------------------|
F#|--5-5-3-3-3--0-0-1-1-1--5-5-3-3-3--0-0-0-1-1-1-----------------------------|
B |---------------------------------------------------------------------------|

E |---------------------------------------------------------------------------|
B |---------------------------------------------------------------------------|
F#|--5-5-3-3-3--0-0-1-1-1--5-5-3-3-3--0-0-0-1-1-1-----------------------------|
B |---------------------------------------------------------------------------|

E |---------------------------------------------------------------------------|
B |---------------------------------------------------------------------------|
F#|--5-5-3-3-3--0-0-1-1-1--5-5-3-3-3--0-0-0-1-1-1-----------------------------|
B |---------------------------------------------------------------------------|
B |---------------------------------------------------------------------------|

E |---------------------------------------------------------------------------|
B |---------------------------------------------------------------------------|
F#|--5-5-3-3-3--0-0-1-1-1--5-5-3-3-3--0-0-0-1-1-1-----------------------------|
B |---------------------------------------------------------------------------|

[Chorus]

E |---------------------------------------------------------------------------|
B |---------------------------------------------------------------------------|
F#|--5-5-3-3-3--0-0-1-1-1--5-5-3-3-3--0-0-0-1-1-1-----------------------------|
B |---------------------------------------------------------------------------|

E |---------------------------------------------------------------------------|
B |---------------------------------------------------------------------------|
F#|--5-5-3-3-3--0-0-1-1-1--5-5-3-3-3--0-0-0-1-1-1-----------------------------|
B |---------------------------------------------------------------------------|

E |---------------------------------------------------------------------------|
B |---------------------------------------------------------------------------|
F#|--5-5-3-3-3--0-0-1-1-1--5-5-3-3-3--0-0-0-1-1-1-----------------------------|
B |---------------------------------------------------------------------------|

E |---------------------------------------------------------------------------|
B |---------------------------------------------------------------------------|
F#|--5-5-3-3-3--0-0-1-1-1--5-5-3-3-3--0-0-0-1-1-1-----------------------------|
B |---------------------------------------------------------------------------|

            
            
Suggest correction
Creating personal tab
Creating personal tab
You can edit any tab online and save it as your Personal.

You can edit, replace or remove any tab part or add personal notes – all changes will be seen only by you.

Personal tabs can be accessed anytime from any device, even offline.
Learn more »
Give kudos to tab author, rate the tab!
1 2 3 4 5
comments
print report bad tab
1 comment total.
0 reply
jareth.hammet 14 Jul 04, 2017 02:00 AM

Correct

guest
You may want to rate the tab now too:
select rating
Wanna post a correction for this tab? Suggest correction