Oops, an error
Loading. Please wait.

We Came To Fight Tab

4 views 1 this week
no commentswrite comment
1 2 3 4 5
3 more votes to show rating
add to favorites
launch autoscroll
font size
0
reset
how to read this tab
guitar tuner
Autoscroll
slow
fast
+/-
esc
set tempo
stop
Help us to improve Ultimate-Guitar.com Take our survey!
×
Author
Difficulty
intermediate
[Intro part 1] 
(top notes=mandolin, bottom single notes=guitar)
    Eb
e|----------------------------------|
B|--8-----8-------------------------|
G|--8-8---8-------------------------|
D|--------8-------------------------|
A|--6-6-6-6-6-6-6-6-6-6-6-6-6-6-6-6-|
E|----------------------------------|
    Ab
e|--4-----4-------------------------|
B|--4-4---4-------------------------|
G|--------5-------------------------|
D|----------------------------------|
A|----------------------------------|
E|--4-4-4-4-4-4-4-4-4-4-4-4-4-4-4-4-|
    Bb
e|----------------------------------|
B|--6-6---6-------------------------|
G|--7-7---7-------------------------|
D|--8-8---8-------------------------|
A|----------------------------------|
E|--6-6-6-6-6-6-6-6-6-6-6-6-6-6-6-6-|
    Eb                Bb
e|----------------------------------|
B|--8-8---8-----------6-6---6-6---6-|
G|--8-8---8-----------7-7---7-7---7-|
D|--8-8---8-----------8-8---8-8---8-|
A|--6-6-6-6-6-6-6-6-6---------------|
E|--------------------6-6-6-6-6-6-6-|

[Intro part 2]
(Chelsea kicks in with the Bagpipe!!!) x3
    Eb               Ab
e|----------------------------------|
B|--8-------8--------9-------9------|
G|------8----------------10---------|
D|-------------8---8------------10--|
A|----------------------------------|
E|----------------------------------|
      Bb                Eb     Bb
e|--------------------------------------|
B|-------------9------9-8----8-6------6-|
G|--8-10---7-------10------8-----7-8----|
D|-----------8--------------------------|
A|--------------------------------------|
E|--------------------------------------|

[Intro part 3]
    Eb             Ab                   Eb                Bb
e|-----------------------------------------------------------------------|
B|---------8-----8-9-------9-9--11-9----8--------------------------------|
G|--8----8---8-8---------------------10----8-10-7--10-7-8-10-8-7-8-10----|
D|-----8-------------10-10---------------------------------------------8-|
A|-----------------------------------------------------------------------|
E|-----------------------------------------------------------------------|
    Eb             Ab                Bb                     Eb
e|----------------------------------------------------------------------|
B|---------8-----8-9-------9-9--11-9----8-------9-8-11----9-8-----------|
G|--8----8---8-8---------------------10----8-10--------10-----8-8-8-8---|
D|-----8-------------10-10----------------------------------------------|
A|----------------------------------------------------------------------|
E|----------------------------------------------------------------------|

[Verse 1]
Eb                       Ab
   So you don't like the way that we sound 
                 Eb                     Bb
Cause they don't sound like this in the Highlands 
Eb                                Ab
   But don't you know that when oppression ruled
    Bb                         Eb
The Highlands fought back this way

[Verse 2]
Eb                       Ab
   So you don't like the way that we look
                 Eb                     Bb
Cause they don't look like this back in Scotland
Eb                                  Ab
   But when their lands were in the hands of a fool
    Bb                        Eb
The Scottish fought back this way

[Chorus]
            Ab                       Eb
So we don't lift our eyes up to your pagan stars
          Ab                Eb
Or give a damn about old samhain
Ab                                     Eb
Don't you know that we don't need your arrogance
     Ab                     Bb
To describe the state we're in

[Pipe solo 1]
(Yeah! Rock those bagpipes Chelsea)
   Eb              Cm              Eb                      Bb
e|---------------------------------------------------------------------|
B|-8-------8--------------------------11----9----8----9----------------|
G|-----8-----8-8---7-8---7-8---7-8-10----10---10---10---10-8-7-8-10----|
D|---8---8-------8-----8-----8---------------------------------------8-|
A|---------------------------------------------------------------------|
E|---------------------------------------------------------------------|
   Eb                Cm              Bb                  Eb
e|--------------------------------------------------------------------|
B|-11---9---8------------------------8-11----9-8-11----9-8------------|
G|----8---8---8-8----7-8---7-8---7-8------10--------10-----8-8-8-8----|
D|-----------------8-----8-----8------------------------------------8-|
A|--------------------------------------------------------------------|
E|--------------------------------------------------------------------|
                   Cm                   Eb                    Bb
e|------------------------------------------------------------------------|
B|---------8-----8-9-------9-9--11-9----8---------11---8------------------|
G|--8----8---8-8---------------------10----8-10-8----8---8-10-8-7-8-10----|
D|-----8-------------10-10----------------------------------------------8-|
A|------------------------------------------------------------------------|
E|------------------------------------------------------------------------|
    Eb             Cm                        Bb   Eb
e|---------------------------------------------------------------------|
B|---------8-----8-9-------9-9--11-9----8-11----9-8-11----9-8----------|
G|--8----8---8-8---------------------10------10--------10-----8-8-8-8--|
D|-----8-------------10-10---------------------------------------------|
A|---------------------------------------------------------------------|
E|---------------------------------------------------------------------|

[Verse 3]
Eb                      Ab
  So you don't like the way we move
                 Eb                      Bb
Cause they don't dance like this back in Ireland
Eb                              Ab
   But when they fell victim to English rule
    Bb                     Eb
The Irish fought back this way

[Verse 4]
Eb                        Ab
   So you don't like they way we talk
                 Eb                     Bb
Cause they don't talk like this back in England
Eb                                  Ab
   But when their lands were in the hands of a fool
           Eb            Bb        Eb
The Celtic nation fought back this way

[Chorus]
                    Ab                 Eb
So we don't bow our heads down to your pagan gods
          Ab                Eb
Or give a damn about old samhain
Ab                                     Eb
Don't you know that we don't need your arrogance
     Ab                     Bb
To describe the state we're in

[Pipe solo 2]
(Damn Chelsea! Back at it again with that bagpipe!)
  (Bb)                            Eb
e|---------------------------------------------------------------------|
B|------8------8-------8-11-8--------------8-9-11-9-8--------8---------|
G|----8------8-----8-8--------8---8---8-10------------10-8-7---10-8-7--|
D|-8------8------8--------------8---8----------------------------------|
A|---------------------------------------------------------------------|
E|---------------------------------------------------------------------|
   Bb                            Eb
e|---------------------------------------------------------------------|
B|------8------8------8-11-8-----8-11----9-8-11----9-11----------------|
G|----8------8-----8---------8--------10--------10------8-8-8-8---7----|
D|-8------8------8-------------8------------------------------------10-|
A|---------------------------------------------------------------------|
E|---------------------------------------------------------------------|
   Bb                              Eb
e|----------------------------------------------------------------------|
B|-------8-------8------8-11-8--------------8-9-11-9-8------------------|
G|-----8-------8-----8---------8---8---8-10------------10-8-7-10-8-7----|
D|-8-8-----8-------8-------------8---8-------------------------------10-|
A|----------------------------------------------------------------------|
E|----------------------------------------------------------------------|
   Bb                            Eb
e|-----------------------------------------------------------------|
B|------8------8------8-11-8-----8-11----9----8------9-------------|
G|----8------8-----8---------8--------10---10---8-10---8-8-8-8-----|
D|-8------8------8-------------8---------------------------------8-|
A|-----------------------------------------------------------------|
E|-----------------------------------------------------------------|
   Ab           Eb         Ab           Eb           Ab          Eb
e|--------------------------------------------------------------------------|
B|-9---8h9p8----8----------9---8h9p8----8------------9-11-9h11p9-8----------|
G|-----------10---8------------------10---10-8-10-8----------------10-8-8-8-|
D|----------------------8---------------------------------------------------|
A|--------------------------------------------------------------------------|
E|--------------------------------------------------------------------------|
   Ab          Bb
e|--------------------------------------|
B|--------------------------8-----------|
G|----8--8--10-10----------------10--8--|
D|-8------------------------------------|
A|--------------------------------------|
E|--------------------------------------|
    Eb               Ab               Bb                Eb     Bb
e|-----------------------------------------------------------------------|
B|--8-------8--------9-------9-----------------9------9-8----8-----------|
G|------8----------------10---------8-10---7-------10------8---10-7-8-10-|
D|-------------8---8------------10-----------8---------------------------|
A|-----------------------------------------------------------------------|
E|-----------------------------------------------------------------------|
    Eb               Ab               Bb       Ab       Eb
e|-----------------------------------------------------------------|
B|--8-------8--------9-------9-----------------9-------------------|
G|------8----------------10---------8-10---7-------10-8-10-8--8-8--|
D|-------------8---8------------10-----------8---------------------|
A|-----------------------------------------------------------------|
E|-----------------------------------------------------------------|

[Verse 5]
Eb                       Ab
   So you don't like the way that we fight
                 Eb                  Bb
Cause they don't fight like this in America
Eb                                Ab
   But don't you know that when a tyrant ruled
     Eb        Bb        Eb
America fought back this way

[Chorus]
              Ab                          Eb
So you should bow your heads down to your pagan gods
    Ab                          Eb
And pray that they deliver your kin
         Ab                    Eb
From the ones about to put you in the ground
        Ab                    Bb
For the arrogant state you're in

[Outro]
(Finish it off Chelsea!!!!!)
   Eb               Cm               Ab                Bb
e|-------------------------------------------------------------------|
B|-8-11-8----------------------------8-11---8----9-8-9---------------|
G|--------8-10-8-8--7-8---7-8----7-8------8---10-------10-8-7-8-10---|
D|-----------------8-----8-----8-----------------------------------8-|
A|-------------------------------------------------------------------|
E|-------------------------------------------------------------------|
   Eb               Cm               Bb                Eb
e|---------------------------------------------------------------------|
B|-8-11-8----------------------------8-11---8----9---8-----------------|
G|--------8-10-8-8--7-8---7-8----7-8------8---10---8---10-8-8-8-8------|
D|-----------------8-----8-----8-------------------------------------8-|
A|---------------------------------------------------------------------|
E|---------------------------------------------------------------------|
                  Ab                   Eb                Bb
e|---------------------------------------------------------------------------|
B|--------8-----8-9-------9-9--11-9----8---8----11---8-----------------------|
G|-8----8---8-8---------------------10---8---10----8---8-10---8---7---8---10-|
D|----8-------------10-10----------------------------------------------------|
A|---------------------------------------------------------------------------|
E|---------------------------------------------------------------------------|
   Eb             Ab        Eb        Bb        Eb        Bb        Eb
e|-----------------------------------------------------------------------|
B|--------8-----8-9-------9-8-11-9----8-11----9-8-11----9-8-11----9-8-11-|
G|-8----8---8-8--------------------10------10--------10--------10--------|
D|----8-------------10-10------------------------------------------------|
A|-----------------------------------------------------------------------|
E|-----------------------------------------------------------------------|
        Bb        Eb
e|------------------------------------------|
B|----9-8-11----9-8-11----9-8---------------|
G|-10--------10--------10-----8-8-8-8-------|
D|------------------------------------------|
A|------------------------------------------|
E|------------------------------------------|


************************************

| b  Bend
| h  Hammer-on
| p  Pull-off

************************************
Suggest correction
Give kudos to tab author, rate the tab!
1 2 3 4 5
comments
print report bad tab
guest
You may want to rate the tab now too:
select rating
Wanna post a correction for this tab? Suggest correction