Oops, an error
Loading. Please wait.

Boom Boom Bass

8,454 views 3 this week
no commentswrite comment
1 2 3 4 5
x 4
add to favorites
launch autoscroll
font size
0
reset
guitar tuner
×
Best way to learn
"Boom Boom"
Autoscroll
slow
fast
+/-
esc
set tempo
stop
Boom Boom

rest through intro
   :50, 2:16
|   e  e  e  e
G -------------|
D -------------|
A -------------|
E --0--3--5--0-|
>
   1:43, 2:58
|   e  e  e  e  e  e  e  e  e  e  e  e  e  e  e  e  e  e  e  e  e  e  e  e
G -------------------------------------------------------------------------------|
D -------------------------------------------------------------------------------|
A --------------------------------------------------0--0--3--5--0--0--3--5-------|
E --0--0--3--5--0--0--3--5--0--0--3--5--0--0--3--5-------------------------------|
>
|   e  e  e  e  e  e  e  e  e  e  e  e  e  e  e  e  e  e  e  e  e  e  e  e
G -------------------------------------------------------------------------|
D -------------------------------------------------------------------------|
A --------------------------2--2--5--7--0--0--3--5-------------------------|
E --0--0--3--5--0--0--3--5--------------------------0--0--3--5--0--3--2--1-|
>

|   e  q  q  q
G -------------|
D -------------|
A -------------|
E --0----------|
>      r  r  r
Suggest correction
comments
print report bad tab
guest
You may want to rate the tab now too:
select rating
Wanna post a correction for this tab? Suggest correction