Oops, an error
Loading. Please wait.

Gonna Send You Back To Walker bass

37 views 1 this week
no commentswrite comment
1 2 3 4 5
3 more votes to show rating
add to favorites
×
Save as Personal and add changes to this tab that will be seen only by you. Learn more ›
×
You can save this tab as Personal to edit and correct it or add notes. All changes will be seen only by you. Learn more »
launch autoscroll
font size
0
reset
guitar tuner
edit
Autoscroll
slow
fast
+/-
esc
set tempo
stop
Bass Tab #1
Tabbed = Lad_Porter12
First tab ever produced sorry for any sort of mistake. This Song goes in order of Intro to Verse to 
Chorus to Verse to Chorus to Outro. 
Artist = The Animals
Song = Gonna send you back to walker
Record = The Animals Singles Plus
Year of Release = 1964 
Arranger(s) = Alan Price  
(Original)/Impression

[Intro]
G|---------------------------------------------------------------------------|
D|---------------------------------------------------------------------------|
A|----------------------666--------------------------------------------------|
E|------7-77-7-7-7-77-77-----------------------------------------------------|

[Verse]
G|---------------------------------------------------------------------------|
D|------------66-9-6-------66-9-6-------66-9-6------66-9-6-----66-9-6--------|
A|---------66-----------66-----------66----------66----------66--------------|
E|------77-----------77-----------77-----------77----------77----------------|

[Chorus]
G|---------------------------------------------------------------------------|
D|---------------22-5-2------22-5-2------22-5-2-------22-5-2----PAUSE--------|
A|------------22-----------22----------22----------22------------------------|
E|-----0-5-33-----------33----------33----------33---------------------------|

G|---------------------------------------------------------------------------|
D|---------------------------------------------------------------------------|
A|------------666----PAUSE---------------------------------------------------|
E|------7-77-7---------------------------------------------------------------|

[Verse 2]
G|---------------------------------------------------------------------------|
D|------------66-9-6-------66-9-6-------66-9-6------66-9-6-----66-9-6--------|
A|---------66-----------66-----------66----------66----------66--------------|
E|------77-----------77-----------77-----------77----------77----------------|

G|---------------------------------------------------------------------------|
D|------------22-5-2-------22-5-2-------66-9-6------66-9-6----PAUSE----------|
A|---------22-----------22-----------66----------66--------------------------|
E|------33-----------33-----------77-----------77----------------------------|

G|---------------------------------------------------------------------------|
D|---------------------------------------------------------------------------|
A|------------666----PAUSE---------------------------------------------------|
E|------7-77-7---------------------------------------------------------------|

G|---------------------------------------------------------------------------|
D|------------66-9-6-------66-9-6-------66-9-6------66-9-6-----66-9-6--------|
A|---------66-----------66-----------66----------66----------66--------------|
E|------77-----------77-----------77-----------77----------77----------------|

[Chorus 2]
G|---------------------------------------------------------------------------|
D|---------------22-5-2------22-5-2------22-5-2-------22-5-2----PAUSE--------|
A|------------22-----------22----------22----------22------------------------|
E|-----0-5-33-----------33----------33----------33---------------------------|

G|---------------------------------------------------------------------------|
D|---------------------------------------------------------------------------|
A|------------666----PAUSE---------------------------------------------------|
E|------7-77-7---------------------------------------------------------------|

[Outro]
G|---------------------------------------------------------------------------|
D|------------66-9-6-------66-9-6-------22-5-2------22-5-2-------22-5-2------|
A|---------66-----------66-----------22----------22-----------22-------------|
E|------77-----------77-----------33-----------33----------33----------------|

G|---------------------------------------------------------------------------|
D|------------22-5-2-------22-5-2-------22-5-2-------22-5-2------------------|
A|---------22-----------22-----------22-----------22-------------------------|
E|------33-----------33-----------33-----------33----------------------------| 

            
            
Suggest correction
Creating personal tab
Creating personal tab
You can edit any tab online and save it as your Personal.

You can edit, replace or remove any tab part or add personal notes – all changes will be seen only by you.

Personal tabs can be accessed anytime from any device, even offline.
Learn more »
Give kudos to tab author, rate the tab!
1 2 3 4 5
comments
print report bad tab
guest
You may want to rate the tab now too:
select rating
Wanna post a correction for this tab? Suggest correction