Oops, an error
Loading. Please wait.
We have an official House Of The Rising Sun tab made by UG professional guitarists. Check out the tab »
×

House Of The Rising Sun bass

30,800 views 309 this week
6 commentsread comments
1 2 3 4 5
x 30
add to favorites
×
Save as Personal and add changes to this tab that will be seen only by you. Learn more ›
×
You can save this tab as Personal to edit and correct it or add notes. All changes will be seen only by you. Learn more »
launch autoscroll
font size
0
reset
guitar tuner
backing track
0:00
0:00
edit
Autoscroll
slow
fast
+/-
esc
set tempo
stop
Author
Difficulty
Hi, This is an awesome song and people just can't seem to get the bass tab right so here 
is. 100% correct


Come in with the drums and vocals
G------------------------------------|
D-7-7-7-7----------------------------|
A----------3-3-3-3--5-5-5-5--8-8-8-8-|
E------------------------------------|


G-------------------------------------|
D--7-7-7-7----------------------------|
A-----------3-3-3-3--7-7-7-7--7-7-7-7-|
E-------------------------------------|

G-------------------------------------------------------------|
D-7-7-7-7-----------------------------7-7-7-7-----------------|
A----------3-3-3-3--5-5-5-5--8-8-8-8-----------7-7-7-7--------|
E-------------------------------------------------------------|

G--------------------------------------------------------------------------|
D-7-7-7-7-----------------------------7-7-7-7-----------7-7-7-7------------|
A----------3-3-3-3--5-5-5-5--8-8-8-8-----------7-7-7-7-----------7-7-7-7---|
E--------------------------------------------------------------------------|


Repeat for the rest of the song
Suggest correction
Creating personal tab
Creating personal tab
You can edit any tab online and save it as your Personal.

You can edit, replace or remove any tab part or add personal notes – all changes will be seen only by you.

Personal tabs can be accessed anytime from any device, even offline.
Learn more »
comments
print report bad tab
6 comments total. Showing first comments.
+1 reply
Kallegubben 159 Nov 20, 2007 06:06 AM

Pretty damn god dude.

+1 reply
guitarman108 126 Jun 10, 2009 12:25 PM

finally a good tab

+1 reply
boblepirate 10 Dec 01, 2009 01:45 PM

i listen the tune on best of the animals and it doest sound like this but on youtube original video souds more like it, but sound really better and bass rythm is like on vers 1,

guest
You may want to rate the tab now too:
select rating
Wanna post a correction for this tab? Suggest correction