Oops, an error
Loading. Please wait.
We have an official House Of The Rising Sun tab made by UG professional guitarists. Check out the tab »
×
2,630,065 views 5,481 this week
86 commentsread comments
1 2 3 4 5
x 881
add to favorites
×
Save as Personal and add changes to this tab that will be seen only by you. Learn more ›
×
You can save this tab as Personal to edit and correct it or add notes. All changes will be seen only by you. Learn more »
launch autoscroll
font size
0
reset
how to read this tab
guitar tuner
backing track
0:00
0:00
edit
Autoscroll
slow
fast
+/-
esc
set tempo
stop
[Intro]
    Am                       C
e|--------------0------------------------0-----------|
B|----------1-------1----------------1-------1-------|
G|--------2-------------0----------0-------------0---|
D|------2------------------------2-------------------|
A|--0------------------------3-----------------------|
E|---------------------------------------------------|

    D                        F (bar top 2 strings)
e|----------2---2--------------------1---1-----------|
B|--------3---------3--------------1---------1-------|
G|------2---------------0--------2---------------0---|
D|--0------------------------3-----------------------|
A|---------------------------------------------------|
E|---------------------------------------------------|

    Am                       E
e|--------------0------------------------0-----------|
B|----------1-------1------------------------0-------|
G|--------2-------------0------------1-----------0---|
D|------2--------------------------2-----------------|  
A|--0----------------------------2-------------------|
E|---------------------------0-----------------------|

    Am                       E
e|--------------0------------------------0-----------|
B|----------1-------1------------------------0-------|
G|--------2-------------0------------1-----------0---|
D|------2--------------------------2-----------------|  
A|--0----------------------------2-------------------|
E|---------------------------0-----------------------|

   
The rest of the verse is basically the above in a different order
Am    C    D    F    Am    C    E    E
Am    C    D    F    Am    E
Am    C    D    F    Am    E    Am    E
Suggest correction
Creating personal tab
Creating personal tab
You can edit any tab online and save it as your Personal.

You can edit, replace or remove any tab part or add personal notes – all changes will be seen only by you.

Personal tabs can be accessed anytime from any device, even offline.
Learn more »
comments
print report bad tab
86 comments total. Showing first comments.
+6 reply
AcDc1087 160 Nov 03, 2003 07:00 PM

Wow Diablo, could you have put more effort and thought into that? Anyway person who tabbed this, good job!!

+24 reply
soac 10 Nov 10, 2003 07:00 PM

good work man. Excellent tab/song 4 beginners and experts.

+2 reply
agracer 10 Dec 31, 2003 07:00 PM

Diablo13 doesn't make sense

guest
Wanna post a correction for this tab? Suggest correction