Oops, an error
Loading. Please wait.
We have an official House Of The Rising Sun tab made by UG professional guitarists. Check out the tab »
×

House Of The Rising Sun chords

version 10
version 10

Whole song

262 views 36 this week
2 commentsread comments
1 2 3 4 5
1 last vote to show rating
add to favorites
×
Save as Personal and add changes to this tab that will be seen only by you. Learn more ›
×
You can save this tab as Personal to edit and correct it or add notes. All changes will be seen only by you. Learn more »
launch autoscroll
font size
0
reset
transpose
0
reset
simplify chords
display chords
guitar tuner
backing track
0:00
0:00
edit
Autoscroll
slow
fast
+/-
esc
set tempo
stop
About this tab version
INTRO arpeggio included which also generally applies throughout the whole song. Was this info helpful? Yes No
Strumming
There is no strumming pattern for this song yet. and get +5 IQ
[Intro]

    Am                       C
e|--------------0------------------------0-----------|
B|----------1-------1----------------1-------1-------|
G|--------2-------------0----------0-------------0---|
D|------2------------------------2-------------------|
A|--0------------------------3-----------------------|
E|---------------------------------------------------|

    D                        F/A
e|----------2---2--------------------1---1-----------|
B|--------3---------3--------------1---------1-------|
G|------2---------------0--------2---------------0---|
D|--0------------------------3-----------------------|
A|---------------------------------------------------|
E|---------------------------------------------------|

    Am                       E
e|--------------0------------------------0-----------|
B|----------1-------1------------------------0-------|
G|--------2-------------0------------1-----------0---|
D|------2--------------------------2-----------------|
A|--0----------------------------2-------------------|
E|---------------------------0-----------------------|

    Am                       E7
e|--------------0------------------------0-----------|
B|----------1-------1------------------------0-------|
G|--------2-------------0------------1-----------0---|
D|------2--------------------------0-----------------|
A|--0----------------------------2-------------------|
E|---------------------------0-----------------------|


[Verse 1]

      Am   C        D          F/A
There is a house in New Orleans
     Am       C      E   E7
They call the Risin' Sun
         Am       C       D           F/A
And it's been the ruin of many a poor boy
    Am     E        Am
And God, I know I'm one

[Instrumental]
C   D  F/A
Am  E  Am  E7

[Verse 2]

   Am     C     D     F/A
My mother was a tailor
    Am       C        E    E7
She sewed my new blue jeans
   Am     C     D        F/A
My father was a gamblin' man
Am      E     Am
Down in New Orleans

[Instrumental]
C   D  F/A
Am  E  Am  E7

[Verse 3]

         Am   C       D       F/A
Now, the only thing a gambler needs
     Am       C     E    E7
Is a suitcase and a truck
        Am   C         D          F/A
And the only time that he's satisfied
   Am        E     Am
Is when he's all a drunk.

[Instrumental]
C   D  F/A
Am  E  Am  E7

[Organ Solo]

Am  C  D  F/A
Am  C  E  E7
Am  C  D  F/A
Am  E  Am
Am  C  D   F/A
Am  E  Am  E7

[Verse 4]

    Am     C          D        F/A
Oh, Mother, tell your children
       Am      C      E   E7
Not to do what I have done
Am         C        D          F/A
Spend your lives in sin and misery
       Am           E      Am
In the house of the risin' sun

[Instrumental]
C   D  F/A
Am  E  Am  E7

[Verse 5]

Am         C       D               F/A
Well, I've got one foot on the platform.
    Am    C           E    E7
the other foot on the train
    Am    C       D          F/A
I'm goin' back to New Orleans
   Am        E        Am
To wear that ball and chain

[Instrumental]
C   D  F/A
Am  E  Am  E7

[Verse 6]

            Am   C        D          F/A
Well, there is a house in New Orleans
     Am       C      E     E7
They call the Risin' Sun
         Am       C       D           F/A
And it's been the ruin of many a poor boy
    Am     E        Am
And God, I know I'm one.

[Outro]

C   D  F/A
Am  E
Am  D  Am  D  Am  D

            
            
Suggest correction
Creating personal tab
Creating personal tab
You can edit any tab online and save it as your Personal.

You can edit, replace or remove any tab part or add personal notes – all changes will be seen only by you.

Personal tabs can be accessed anytime from any device, even offline.
Learn more »
Give kudos to tab author, rate the tab!
1 2 3 4 5
comments
print report bad tab
2 comments total.
0 reply
CPWKruger 3,152 Jul 27, 2017 10:52 PM

No Fmaj7 is ever played in this song. I think you mean F7.

guest
You may want to rate the tab now too:
select rating
Wanna post a correction for this tab? Suggest correction