Oops, an error
Loading. Please wait.

Sky Pilot bass

version 1
version 1

Whole song

  • Note for note, this is what I hear Danny McCulloch play in the song.

Interactive

2,445 views 1 this week
2 commentsread comments
1 2 3 4 5
x 4
add to favorites
×
Save as Personal and add changes to this tab that will be seen only by you. Learn more ›
×
You can save this tab as Personal to edit and correct it or add notes. All changes will be seen only by you. Learn more »
launch autoscroll
font size
0
reset
guitar tuner
backing track
0:00
0:00
edit
Autoscroll
slow
fast
+/-
esc
set tempo
stop
Author
-------------------------------------------------------------------------------
			     Sky Pilot- The Animals
-------------------------------------------------------------------------------

Tabbed By : Wesley
e-mail: onehalflatino@yahoo.com

Tuning:Standered

 Intro/riff 1
G|---10--10-------8-------8--------------------------------------------------|
D|-----------8-10----8-10----------------------------------------------------|
A|---------------------------------------------------------------------------|
E|---------------------------------------------------------------------------|


 main riff      (fill)
G|---------------------------------------------------------------------------|
D|---0----0--------0-4-5-7-0-------------------------------------------------|
A|--0---0---------0----------------------------------------------------------|
E|---------------------------------------------------------------------------|




| /  slide up
| \  slide down
| h  hammer-on
| p  pull-off
| ~  vibrato
| +  harmonic
| x  Mute note
=============================================================================== 
That is it. its 100% correct on the notes just listen to the song, its made up
of those 3 riffs

            
            
Suggest correction
Creating personal tab
Creating personal tab
You can edit any tab online and save it as your Personal.

You can edit, replace or remove any tab part or add personal notes – all changes will be seen only by you.

Personal tabs can be accessed anytime from any device, even offline.
Learn more »
comments
print report bad tab
2 comments total.
+1 reply
AaronDrFeelgood 124 Mar 15, 2008 03:14 PM

Bro, that's a terrible tabbing, cuz first of all, that "Main riff" is missing a C, and isn't played all through out the song

0 reply
chapperjpgr 10 Feb 28, 2016 12:53 AM

Please don't bother making tabs, Wesley.

guest
You may want to rate the tab now too:
select rating
Wanna post a correction for this tab? Suggest correction