Oops, an error
Loading. Please wait.

Sky Pilot bass

version 2
version 2

Whole song

  • Note for note, this is what I hear Danny McCulloch play in the song.

Interactive

368 views 3 this week
no commentswrite comment
1 2 3 4 5
2 more votes to show rating
add to favorites
×
Save as Personal and add changes to this tab that will be seen only by you. Learn more ›
×
You can save this tab as Personal to edit and correct it or add notes. All changes will be seen only by you. Learn more »
launch autoscroll
font size
0
reset
guitar tuner
backing track
0:00
0:00
edit
Autoscroll
slow
fast
+/-
esc
set tempo
stop
Author
Difficulty
About this tab version
Note for note, this is what I hear Danny McCulloch play in the song. Was this info helpful? Yes No
-------------------------------------------------------------------------------
                             Sky Pilot - The Animals
-------------------------------------------------------------------------------
Tabbed by: CorporalCrunch
Tuning: Standard


Verse 1: "...he's a good holy man"
G|10-10-10-10------8------8-10\5-|
D|------------8-10---8-10--------|
A|-------------------------------|
E|-------------------------------|


Chorus: "Sky Pilot..."                             
G|---------------------------------------------------------------------------------|
D|-------------------1-------------------0-1-3-----------------------1-------------|
A|1--1-1---1--1-1-1----1---1-1---1-1---1--------1--1-1---1--1--1--1----1---1-1---1-|
E|---------------------------------------------------------------------------------|
 "How high can you fly..." 
G|--------------------------------------------------10\12-10\12---------------------------|
D|----------------------------------------------------------------------------------------|
A|-3-----3---2-1---1-1-1---3-3-3-3-3-3-3-3-3-3-3-3---------------1--1-1-1---1-1---1-1-0-1-|
E|-----3----------------------------------------------------------------------------------|


Verse 2: "He smiles at the young soldiers..."
G|------------------------------------------------------------------------|
D|-------------1----1---------------1----1---------------1----1-----------|
A|-3-----3---1----1------3----3---1----1------3----3---1----1------3----3-|
E|-----3---------------3----3---------------3----3---------------3----3---|

G|-------------------------------|
D|---3---3-3---3-3-3-1-1-3-1-----|
A|-3-------------------------3---|
E|-----------------------------1-|


Chorus 2: "Sky Pilot..."
G|--------------------------------------------------------------------------------|
D|--------------------1-------------------0-1-3-------------------------1---------|
A|-1--1-1-1-1-1-1-1-1---1---1-1---1-1---1--------1--1-1---1-1---1-1---1---1---1-1-|
E|--------------------------------------------------------------------------------|
 "How high can you fly..."
G|-------------------------------------------------10\12-10\12-----------------------|
D|-----------------------------------------------------------------------------------|
A|---3----3---2-1---1-1---3-3-3-3-3-3-3-3-3-3-3-3---------------1--1-1-1----1--1-1-1-|
E|-3----3-----------------------------------------------------------------1----------|


Verse 3: "He mumbles a Prayer..."
G|------------------------------------------------------------------------|
D|-------------1----1---------------1----1---------------1----1-----------|
A|-3-----3---1----1------3----3---1----1------3----3---1----1------3----3-|
E|-----3---------------3----3---------------3----3---------------3----3---|

G|---------------------------------|
D|---3-3-3-3-3-3-3-3-3-3-1-1-0-0---|
A|-3-----------------------------1-|
E|---------------------------------|
"As the young men move out......"
G|-------------------------------------------------------------------------|
D|-------------1----1----------------1----1---------------1----1-----------|
A|-3-----3---1----1---1-2-3----3---1----1------3----3---1----1------3----3-|
E|-----3---------------------3---------------3----3---------------3----3---|

G|-----------------------------------|
D|---3-3-3-3-3-3-3-3-3-3-1-1-0-0-----|
A|-3-----------------------------3-3-|
E|-----------------------------------|


Chorus 3: "Sky Pilot..."
G|----------------------------------------------------------------------------------------|
D|------------------------1-------------------0-1-3-------------------------1-------------|
A|-1--1-1---1-1---1-1---1---1---1-1---1-1---1--------1--1-1---1-1---1-1---1---1---1-1---1-|
E|----------------------------------------------------------------------------------------|
 "How high can you fly..."
G|------------------------------------------------10\12-10\12-------------------------|
D|------------------------------------------------------------------------------------|
A|-3-----3---2-1---1-1---3-3-3-3-3-3-3-3-3-3-3-3---------------1--1-1-1----1--1-1-1-1-|
E|-----3-----------------------------------------------------------------1------------|


Guitar Solo:                                                     (x24 before fade)
G|---------------------------------------------------------------|--------------|
D|-----------------------------------3---------------------0-1-3-|--------0-1-3-|
A|---1-1-1-1-1-1-1-1-1-1-1-1-1-1-1-1---1-1-1-1-1-1-1-1-1-1-------|-1--1-1-------|
E|-1-------------------------------------------------------------|--------------|


Interlude:
G|--------------------------------------------------|
D|---1-----1-----1-----1-----1-----1-----1-----1----|
A|-1-----1-----1-----1-----1-----1-----1-----1----1-|
E|--------------------------------------------------|


Verse 4: "You're soldiers of God...."
G|---------------------------------------------------------------------|
D|-----------1----1--------------1----1--------------1----1------------|
A|-3-----3------1-------3----3------1-------3----3------1-------3----3-|
E|-----3--------------3----3--------------3----3--------------3----3---|

G|---------------------------------|
D|---3-3-3-3-3-3-3-3-3-3-3-3-------|
A|-3-------------------------0-1-2-|
E|---------------------------------|
"In the morning, they return.."
G|--------------------------------------------------------------------10-10-10-10------8------8-10\5-|
D|----------1--1-1---0----------1--1-1---0----------1--1-1--0---------------------8-10---8-10--------|
A|-3--3-3--------------3--3-3--------------3--3-3-------------3--3-3---------------------------------|
E|---------------------------------------------------------------------------------------------------|


Chorus 5: "Sky Pilot..."
G|------------------------------------------------------------------------------------------|
D|----------------------------1----------------0-1-3----------------------------1-----------|
A|-1--1--1-1--1-1---1--1-1--1---1--1-1--1-1--1--------1--1--1-1--1-1--1--1-1--1---1--1-1--1-|
E|------------------------------------------------------------------------------------------|
 "How high can you fly..."
G|-------------------------------------10\12-10\12-10\12-10\12-------------------------|
D|----------------------------------------------------------------------3-3------0-1-3-|
A|-3--3-3-3---3-1---1-1-1---1-3-3-3-3---------------------------1--1--1-----1----------|
E|-------------------------------------------------------------------------------------|


Chorus 6: "Sky Pilot..."
G|------------------------------------------------------------------------------------------|
D|----------------------------1----------------0-1-3----------------------------1-----------|
A|-1--1--1-1--1-1---1--1-1--1---1--1-1--1-1--1--------1--1--1-1--1-1--1--1-1--1---1--1-1--1-|
E|------------------------------------------------------------------------------------------|
  "How high can you fly..."
G|------------------------------------------10\12-12--10\12-12-------8-12-------------------------|
D|-------------------------------------------------------------10-10------------------------------|
A|-3-----3-3-----1----1---1-3-3-3-3-3-3-3-3--------------------------------1--1--1-1--1-1--1--1-1-|
E|-----3-------3----3-----------------------------------------------------------------------------|

"You'll never reach the sky..."
G|-------------------------------------------------------|
D|---------------1---1-1-1-0-----------3-3-----1-3-------|
A|-3---3-3-3---1-------------3-1---1-1------1------0-1-2-|
E|-------------------------------------------------------|

"You'll never reach the sky..."
G|----------------------------------------------------------|
D|---------------1---1-3\5-5-5-5-3--------------------------|
A|-3---3-3-3---1---------------------1--1-1--1-1-1--1-1-1-1-|
E|----------------------------------------------------------|

"You'll never reach the sky..."
G|-----------------------------------------------|
D|-------------1---1-3\5-3\5---------------0-1-3-|
A|-3---3-3---1----------------1--1-1--1-1--------|
E|-----------------------------------------------|

*FADE*

"You'll never reach the sky..."
G|--------------10\12-10\12-10\12-10\12----|
D|-----------------------------------------|
A|-3---3-3---3---------------------------1-|
E|-----------------------------------------|


| /  slide up
| \  slide down

===============================================================================

            
            
Suggest correction
Creating personal tab
Creating personal tab
You can edit any tab online and save it as your Personal.

You can edit, replace or remove any tab part or add personal notes – all changes will be seen only by you.

Personal tabs can be accessed anytime from any device, even offline.
Learn more »
Give kudos to tab author, rate the tab!
1 2 3 4 5
comments
print report bad tab
guest
You may want to rate the tab now too:
select rating
Wanna post a correction for this tab? Suggest correction