Oops, an error
Loading. Please wait.

The Girl Cant Help It Bass Tab

801 views 6 this week
no commentswrite comment
1 2 3 4 5
please rate
add to favorites
launch autoscroll
font size
0
reset
guitar tuner
Tab Pro tools
  • play this tab
  • loop segment
  • change instrument
  • show fretboard
  • metronome
×
Best way to learn
"The Girl Cant Help It"
Autoscroll
slow
fast
+/-
esc
set tempo
stop
Contributor
The Girl Can't Help It
The Animals
Written by Bobby Troup; released on the album "The Animals".

Intro:
G|------ ------ ------ ------|------ ------ ------ ------|
D|---------------------------|---------------------------|
A|---------------------------|---------------------------|
E|---------------------------|---------------------------|
      She can't help it,  the girl   can't  help it,


G|------ ------ ------ ------|------ ------ ------ ------|
D|---------------------------|---------------------------|
A|---------------------------|---------------------------|
E|---------------------------|---------------------------|
      she can't help it,  the girl   can't  help it

Verse:
G|------ ------ ------ ------|------ 2----- 3----- 4-----|
D|-------2------3------4-----|5--------------------------|
A|3--------------------------|---------------------------|
E|---------------------------|---------------------------|
  She walks by,           the men    folks     get engrossed,


G|5----- 3----- 2----- ------|------ ------ ------ ------|
D|---------------------5-----|5------3------2------1-----|
A|---------------------------|---------------------------|
E|---------------------------|---------------------------|

     (she can't help it,  the girl   can't  help it)

G|------ ------ ------ ------|------ ------ ------ ------|
D|3------1------0------------|---------------------------|
A|---------------------3-----|3------1------0------------|
E|---------------------------|---------------------3-----|
  She winks her eye,       bread  slices    turn   to  toast,


G|------ ------ ------ ------|------ 2----- 3----- 4-----|
D|-------2------3------4-----|5--------------------------|
A|3--------------------------|---------------------------|
E|---------------------------|---------------------------|

     (she can't help it,  the girl   can't  help it)

G|------ ------ ------ ------|------ ------ ------ ------|
D|5------3------2------1-----|3------1------0------0-----|
A|---------------------------|---------------------------|
E|---------------------------|---------------------------|
  She's got a lot      of what    they   call      the most.


G|------ 5----- 3----- 2-----|------ ------ ------ ------|
D|---------------------------|5------3------2------------|
A|3--------------------------|---------------------5-----|
E|---------------------------|---------------------------|
                                                       The
     (she can't help it,  the girl   can't  help it)
Refrain:
G|------ ------ ------ ------|------ 2----- 3----- 4-----|
D|-------2------3------4-----|5--------------------------|
A|3--------------------------|---------------------------|
E|---------------------------|---------------------------|
  girl   can't  help it,      she was    born      to  please,


G|5----- 3----- 2----- ------|------ ------ ------ ------|
D|---------------------5-----|5------3------2------1-----|
A|---------------------------|---------------------------|
E|---------------------------|---------------------------|
                                                And if I
     (she can't help it,  the girl   can't  help it)

G|------ ------ ------ ------|------ ------ ------ ------|
D|3------1------0------------|---------------------3-----|
A|---------------------3-----|3------1------0------------|
E|---------------------------|---------------------------|
         go  to her        on     my            bended knees,


G|------ ------ ------ ------|------ 2----- 3----- 4-----|
D|-------2------3------4-----|5--------------------------|
A|3--------------------------|---------------------------|
E|---------------------------|---------------------------|
                                                      'Cause
     (she can't help it,  the girl   can't  help it)

G|------ ------ ------ ------|------ ------ ------ ------|
D|5------3------2------1-----|3------1------0------0-----|
A|---------------------------|---------------------------|
E|---------------------------|---------------------------|
      I'm    ho  -  pin'   ob  -  vious- ly            that


G|------ ------ ------ ------|------ ------ ------ ------|
D|5--------------------------|3------1------0------0-----|
A|-------2------3------5-----|---------------------------|
E|---------------------------|---------------------------|
      some   day          the answer will be           The


G|------ ------ ------ ------|------ ------ ------ ------|
D|5------3------2------1-----|3------1------0------0-----|
A|---------------------------|---------------------------|
E|---------------------------|---------------------------|
  girl   can't  help it,   she's  in     love      with me.


G|------ 5----- 3----- 2-----|------ ------ ------ ------|
D|---------------------------|5------3------2------------|
A|3--------------------------|---------------------5-----|
E|---------------------------|---------------------------|
                                                       She'd
     (she can't help it,  the girl   can't  help it)
Verse:
G|------ ------ ------ ------|------ 2----- 3----- 4-----|
D|-------2------3------4-----|5--------------------------|
A|3--------------------------|---------------------------|
E|---------------------------|---------------------------|
  mess   around          with eve -  ry     mother's   son,


G|5----- 3----- 2----- ------|------ ------ ------ ------|
D|---------------------5-----|5------3------2------1-----|
A|---------------------------|---------------------------|
E|---------------------------|---------------------------|
                                                   If  I
     (she can't help it,  the girl   can't  help it)

G|------ ------ ------ ------|------ ------ ------ ------|
D|3------1------0------------|---------------------3-----|
A|---------------------3-----|3------1------0------------|
E|---------------------------|---------------------------|
      give   good          she'll say   "Ba  -  by, well
         her    lovin',

G|------ ------ ------ ------|------ 2----- 3----- 5-----|
D|-------2------3------4-----|5--------------------------|
A|3--------------------------|---------------------------|
E|---------------------------|---------------------------|
  done!"                                               She'd
     (she can't help it,  the girl   can't  help it)

G|------ ------ ------ ------|------ ------ ------ ------|
D|5------3------2------1-----|3------1------0------0-----|
A|---------------------------|---------------------------|
E|---------------------------|---------------------------|
      make my   grandpa    feel      like       twenty-one.


G|------ 5----- 3----- 2-----|------ ------ ------ 2/3---|
D|---------------------------|5------3------1------------|
A|3--------------------------|---------------------------|
E|---------------------------|---------------------------|
                                                       The
     (she can't help it,  the girl   can't  help it)
Refrain:
G|------ ------ ------ ------|------ ------ ------ ------|
D|-------2------3------4-----|5------7------8------9-----|
A|3--------------------------|---------------------------|
E|---------------------------|---------------------------|
  girl   can't  help it,      she was    born   to please,


G|------ 8----- 9----- 10----|12---- 10---- ------ ------|
D|10-------------------------|--------------13-----10----|
A|---------------------------|---------------------------|
E|---------------------------|---------------------------|
                                                And if I
     (she can't help it,  the girl   can't  help it)

G|10---- 8----- 7----- 5-----|5----- 3----- 2----- ------|
D|---------------------------|---------------------5-----|
A|---------------------------|---------------------------|
E|---------------------------|---------------------------|
         go  to her        on     my            bended knees,


G|5----- 3----- 2----- ------|------ ------ ------ ------|
D|---------------------5-----|5------3-------------------|
A|---------------------------|--------------6------3-----|
E|---------------------------|---------------------------|
                                                      'Cause
     (she can't help it,  the girl   can't  help it)

G|------ ------ ------ ------|------ ------ ------ ------|
D|5--------------------------|3------1------0------0-----|
A|-------2------3------4-----|---------------------------|
E|---------------------------|---------------------------|
      I'm    ho  -  pin'   ob  -  vious- ly            that


G|------ ------ ------ ------|------ ------ ------ ------|
D|5------3------2------1-----|3------1------0------0-----|
A|---------------------------|---------------------------|
E|---------------------------|---------------------------|
      some   day          the answer will be           The


G|------ ------ ------ ------|------ ------ ------ ------|
D|5--------------------------|3------1------0------0-----|
A|-------2------3------5-----|---------------------------|
E|---------------------------|---------------------------|
  girl   can't  help it,   she's  in     love      with me.


G|------ 5----- 3----- 2-----|------ ------ ------ 3-----|
D|---------------------------|5------3------2------------|
A|3--------------------------|---------------------------|
E|---------------------------|---------------------------|

     (she can't help it,  the girl   can't  help it)
Verse (solo):
G|------ ------ ------ ------|------ 2----- 3----- 4-----|
D|-------2------3------4-----|5--------------------------|
A|3--------------------------|---------------------------|
E|---------------------------|---------------------------|



G|5----- 5----- ------ ------|------ ------ ------ ------|
D|--------------8------8-----|7------7------10-----8-----|
A|---------------------------|---------------------------|
E|---------------------------|---------------------------|



G|------ 10---- 8----- 7-----|5----- 3----- 2----- ------|
D|---------------------------|---------------------5-----|
A|8--------------------------|---------------------------|
E|---------------------------|---------------------------|



G|5----- 3----- 2----- ------|------ ------ ------ 5\----|
D|---------------------5-----|5------3------2------------|
A|---------------------------|---------------------------|
E|---------------------------|---------------------------|



G|------ ------ ------ ------|------ ------ ------ ------|
D|5------3------2------1-----|3------1------0------0-----|
A|---------------------------|---------------------------|
E|---------------------------|---------------------------|



G|------ ------ ------ ------|------ 2----- 3----- 3-----|
D|-------2------3------4-----|5--------------------------|
A|3--------------------------|---------------------------|
E|---------------------------|---------------------------|


Verse:
G|5----- 3----- 2----- ------|------ ------ ------ ------|
D|---------------------5-----|5------3------2------1-----|
A|---------------------------|---------------------------|
E|---------------------------|---------------------------|
      She can't help it,  the girl   can't  help it,


G|------ 5----- 3----- 2-----|------ ------ ------ ------|
D|---------------------------|5------3------2------1-----|
A|3--------------------------|---------------------------|
E|---------------------------|---------------------------|
      she can't help it,  the girl   can't  help it,


G|------ ------ ------ ------|------ ------ ------ ------|
D|3------1------0------------|---------------------3-----|
A|---------------------3-----|3------1------0------------|
E|---------------------------|---------------------------|
      She can't help it,  the girl   can't  help it,


G|------ ------ ------ ------|------ 2----- 3----- 4-----|
D|-------2------3------4-----|5--------------------------|
A|3--------------------------|---------------------------|
E|---------------------------|---------------------------|
      she can't help it,  the girl   can't  help it,


G|------ ------ ------ ------|------ ------ ------ ------|
D|5------3------2------1-----|3------1------0------------|
A|---------------------------|---------------------4-----|
E|---------------------------|---------------------------|
      She can't help it,  the girl   can't  help it,


G|------ ------ ------ ------|------ ------ ------ ------|
D|-------2------3------4-----|5------7------8------9-----|
A|3--------------------------|---------------------------|
E|---------------------------|---------------------------|
      she can't help it,  the girl   can't  help it,

Verse:
G|------ 8----- 9----- 10----|12---- 10---- ------ ------|
D|10-------------------------|--------------13-----12----|
A|---------------------------|---------------------------|
E|---------------------------|---------------------------|
  She walks by,           the men    folks     get engrossed,


G|------ ------ ------ ------|------ ------ ------ ------|
D|10-------------------------|---------------------10--8-|
A|-------13-----12-----10----|10-----8------7------------|
E|---------------------------|---------------------------|

     (she can't help it,  the girl   can't  help it)

G|------ 10---- 8----- 7-----|------ ------ ------ ------|
D|---------------------------|10-----8------7------5-----|
A|8--------------------------|---------------------------|
E|---------------------------|---------------------------|
  She's got a lot      of what    they   call      the most,


G|5----- 3----- 2----- ------|------ ------ ------ ------|
D|---------------------5-----|5------3------2------5-----|
A|---------------------------|---------------------------|
E|---------------------------|---------------------------|
                                                She can wink
     (she can't help it,  the girl   can't  help it)

G|------ ------ ------ ------|------ ------ ------ ------|
D|5------3------2------1-----|3------1------0------0-----|
A|---------------------------|---------------------------|
E|---------------------------|---------------------------|
      her    eye,      the bread  slices    turn   to  toast.


G|------ 5----- 3----- 2-----|------ ------ ------ ------|
D|---------------------------|5------3------2------------|
A|3--------------------------|---------------------5-----|
E|---------------------------|---------------------------|
                                                       The
     (she can't help it,  the girl   can't  help it)
Refrain:
G|------ ------ ------ ------|------ 2----- 3----- 4-----|
D|-------2------3------4-----|5--------------------------|
A|3--------------------------|---------------------------|
E|---------------------------|---------------------------|
  girl   can't  help it,      she was    born   to please,


G|5----- 3----- 2----- ------|------ ------ ------ ------|
D|---------------------5-----|5------3------2------1-----|
A|---------------------------|---------------------------|
E|---------------------------|---------------------------|
                                                And if I
     (she can't help it,  the girl   can't  help it)

G|------ ------ ------ ------|------ ------ ------ ------|
D|3------1------0------------|---------------------3-----|
A|---------------------3-----|3------1------0------------|
E|---------------------------|---------------------------|
         go  to her        on     my            bended knees,


G|------ ------ ------ ------|------ 2----- 3----- 5-----|
D|-------2------3------4-----|5--------------------------|
A|3--------------------------|---------------------------|
E|---------------------------|---------------------------|
                                                      'Cause
     (she can't help it,  the girl   can't  help it)

G|------ ------ ------ ------|------ ------ ------ ------|
D|5------3------2------1-----|3------1------0------0-----|
A|---------------------------|---------------------------|
E|---------------------------|---------------------------|
      I'm    ho  -  pin'   ob  -  vious- ly            that


G|------ ------ ------ ------|------ ------ ------ ------|
D|5--------------------------|3------1------0------0-----|
A|-------2------3------5-----|---------------------------|
E|---------------------------|---------------------------|
      some   day          the answer will be           The


G|------ ------ ------ ------|------ ------ ------ ------|
D|5------3------2------1-----|3------1------0------0-----|
A|---------------------------|---------------------------|
E|---------------------------|---------------------------|
  girl   can't  help it,   she's  in     love      with me.


G|------ ------ ------ ------|------ 2----- 3----- 5-----|
D|-------2------3------4-----|5--------------------------|
A|3--------------------------|---------------------------|
E|---------------------------|---------------------------|

     (she can't help it,  the girl   can't  help it)
Outro:
G|5----- 3----- 2----- ------|------ ------ ------ ------|
D|---------------------5-----|5------3------2------------|
A|---------------------------|---------------------5-----|
E|---------------------------|---------------------------|



G|------ ------ ------ ------|------ ------ ------ ------|
D|---------------------------|---------------------------|
A|3----------3---------------|3----------3---------------|
E|---------------------------|---------------------------|

Please e-mail me for any corrections, or write a comment.
comments
We did not receive enough feedback on this tab! Please rate:
print report bad tab
1 2 3 4 5
I want to post or [tab]
guest
You may want to rate the tab now too:
select rating
Please do not post tabs as comments. Select "correction" instead!