Oops, an error
Loading. Please wait.

Never Too Late tab

version 2
version 2

Whole song

Interactive

7,458 views 1 this week
4 commentsread comments
1 2 3 4 5
x 8
add to favorites
×
Save as Personal and add changes to this tab that will be seen only by you. Learn more ›
×
You can save this tab as Personal to edit and correct it or add notes. All changes will be seen only by you. Learn more »
launch autoscroll
font size
0
reset
how to read this tab
guitar tuner
backing track
0:00
0:00
edit
Autoscroll
slow
fast
+/-
esc
set tempo
stop
Author
                      The Answer-Never Too Late
                   Sweet Song. No question about it.
                          Tuning is Drop D.
                      Please rate and comment!
                             Thanks! :P


Crazy Intro
|------------------------------------------------------------------------|
|------------------------------------------------------------------------|
|------------------------------------------------------------------------|
|--5p3h5p3h5p3h5p3h5p3h5p3h5p3h5p3h5p3h5p3h5p3h5p3h5p3h5p3h5p3h5~~~~~~---|
|------------------------------------------------------------------------|
|------------------------------------------------------------------------|

|-----------3---------3h6p3---------3h6p3---------3h6p3---------3h6p3----|
|------------6p3---3h6-----6p3---3h6-----6p3---3h6-----6p3---3h6-----6p3-|
|----3-5b7------5b7-----------5b7-----------5b7-----------5b7------------|
|-3h5--------------------------------------------------------------------|
|------------------------------------------------------------------------|
|------------------------------------------------------------------------|

|------------------------------------------------------------------------|
|----3h6p3---3h6p3---3h6p3---3h6p3-----3h6p3-----3h6p3-----3h6p3---3h6p3-|
|-5b7-----5b6-----5b6-----5b6-----5b6.5-----5b6.5-----5b6.5-----5b7------|
|------------------------------------------------------------------------|
|------------------------------------------------------------------------|
|------------------------------------------------------------------------|

|-----3---3h6p3----------------------------------------------------------|
|----3-6p3-----6p3-------------------------------------------------------|
|-5b7-------------3h5p3--------------------------------------------------|
|----------------------5p3-----------------------------------------------|
|-------------------------1h3p1-3p1-3p1-3p1-3p1-3p1-3p1-3p1-3p1-3p1-3b4~-|
|------------------------------5---5---5---5---5---5---5---5---5---5-----|

|--------------------------------------------|
|--------------------------------------------|
|--------------------------------------------|
|--3~~~~----------------5~~~~~---------------|
|--3~~~~----------------5~~~~~---------------|
|--3~~~~----------------5~~~~~---------------|

And now the rest of the band comes in
|------------------------------------------------------------------------|
|------------------------------------------------------------------------|
|------------------------------------------------------------------------|
|-3h5-3~----------3h5-3~----------3h5-3~------------------------------5~-|
|--------1h3p1-5~--------1h3p1-5~--------1h3p1-5~---------------------5~-|
|--------------5~--------------5~--------------5~--0h3-0h3-0h3--0h3h5-5~-| 

|------------------------------------------------------------------------|
|------------------------------------------------------------------------|
|------------------------------------------------------------------------|
|-3h5-3~----------3h5-3~----------------------------------------------5~-|
|--------1h3p1-5~--------1h3p1-5~--------1h3p1-5~---------------------5~-|
|--------------5~--------------5~-3h5-3--------5~--0h3-0h3-0h3--0h3h5-5~-| 

|-----------------------------------------------|
|-----------------------------------------------|
|-----------------------------------------------|
|-----------------------------------------------|
|------------------5----------------------------|
|---0h3-0h3--0h3h5-5~---0h3p0h3p0h3h5-----------|

Verse 1
|------------------------------------------------------------------------|
|------------------------------------------------------------------------|
|------------------------------------------------------------------------|
|-3h5-xx-3~--------3h5-xx-3~--------3h5-xx-3~--------3h5-xx-3~-----------|
|-------------2--3-------------2--3-------------2--3-------------2--3----|
|------------5----------------5----------------5----------------5--------|

|------------------------------------------------------------------------|
|------------------------------------------------------------------------|
|------------------------------------------------------------------------|
|-3h5-xx-3~--------3h5-xx-3~--------3h5-xx-3~--------3h5-xx-3~-----------|
|-------------2--3-------------2--3-------------2--3-------------2--3----|
|------------5----------------5----------------5----------------5--------|

Chorus
|--333------333------333------333------333------333------333------333------|
|--333------333------333------333------333------333------333------333------|
|--000--4-5-000--4-5-000--4-5-000--4-5-000--4-5-000--4-5-000--4-5-000--4-5-|
|--000--5-5-000--5-5-000--5-5-000--5-5-000--5-5-000--5-5-000--5-5-000--5-5-|
|--555--2-3-555--2-3-555--2-3-555--2-3-555--2-3-555--2-3-555--2-3-555--2-3-|
|--555------555------555------555------555------555------555------555------|

|--333------333------333------333------|
|--333------333------333------333------|
|--000--4-5-000--4-5-000--4-5-000--4-5-|
|--000--5-5-000--5-5-000--5-5-000--5-5-|
|--555--2-3-555--2-3-555--2-3-555--2-3-|
|--555------555------555------555------|

Verse 2
|--------------------------------------------------------------------------|
|--------------------------------------------------------------------------|
|--------------------------------------------------------------3-3-5br7p3--|
|-3h5-xx-3~-------3h5-xx-3~-------3h5-xx-3~--------3h5-x-3~-3h5-5--------5-|
|------------2--3------------2--3-------------2--3-------------------------|
|-----------5--------------------------------5-----------------------------|

|--------------------------------------------------------------------------|
|--------------------------------------------------------------------------|
|-----------------------------------------------------------5b7-5b7p3--3---|
|-3h5-xx-3~-------3h5-xx-3~-------3h5-xx-3~-------3h5-xx-3~----------5--5~-|
|------------2--3------------2--3------------2--3--------------------------|
|-----------5---------------5---------------5------------------------------|

|------------------------------------------------------------------------|
|------------------------------------------------------------------------|
|------------------------------------------------------------------------|
|-3h5-xx-3~--------3h5-xx-3~--------3h5-xx-3~--------3h5-xx-3~-333345555-|
|-------------2--3-------------2--3-------------2--3-----------333345555-|
|------------5----------------5----------------5---------------111123333-|

Chorus
|--333------333------333------333------333------333------333------333------|
|--333------333------333------333------333------333------333------333------|
|--000--4-5-000--4-5-000--4-5-000--4-5-000--4-5-000--4-5-000--4-5-000--4-5-|
|--000--5-5-000--5-5-000--5-5-000--5-5-000--5-5-000--5-5-000--5-5-000--5-5-|
|--555--2-3-555--2-3-555--2-3-555--2-3-555--2-3-555--2-3-555--2-3-555--2-3-|
|--555------555------555------555------555------555------555------555------|

|--333------333------333------333------333------333------333------|
|--333------333------333------333------333------333------333------|
|--000--4-5-000--4-5-000--4-5-000--4-5-000--4-5-000--4-5-000--4-5-|
|--000--5-5-000--5-5-000--5-5-000--5-5-000--4-5-000--4-5-000--4-5-|
|--555--2-3-555--2-3-555--2-3-555--2-3-555--2-3-555--2-3-555--2-3-|
|--555------555------555------555------555------555------555------|

Solo with Wah
|--------------------------------------------------------------------------|
|-----------------------------------------------------------------11-13b15-|
|----------------------------------------3-5br7p3~-5~-7~-9~-10~-12---------|
|-3h5-3-------------------------------3-5----------------------------------|
|------2-3-2------------1b1.5~~~-3~~~--------------------------------------|
|-----------5-3--3--3--3---------------------------------------------------|

       8x 
|----10h13p10-|-13b15--10---------------------------------|
|--13---------|---------13-11--13-11-------11-10----------|
|-------------|---------------12-----12-10-9-----12p10~~--|
|-------------|-------------------------------------------|
|-------------|-------------------------------------------|
|-------------|-------------------------------------------|

|-------------------------------------10b11-10b11-10b11-10-----------------|
|-------------10-10br11--10------10---10b11-10b11-10b11-10-10-10br11--10---|
|-9~12-9-12~12---------12--12~-12--12-------------------------------12--12~|
|--------------------------------------------------------------------------|
|--------------------------------------------------------------------------|
|--------------------------------------------------------------------------|

|-10-1010-13b15~-----15h18p15--15h18p15--15h18p15--15h18-18b20~-|
|------------------18--------18--------18--------18-------------|
|---------------------------------------------------------------|
|---------------------------------------------------------------|
|---------------------------------------------------------------|
|---------------------------------------------------------------|

                                                  tremolo pick
|---16-18-20~-18-20p18h20p18h20p18h20p18h20p18h20-20*-------|
|-18--------------------------------------------------------|
|-----------------------------------------------------------|
|-----------------------------------------------------------|
|-----------------------------------------------------------|
|-----------------------------------------------------------|

For these tremolo pick and slowly release the bend while picking
|-18---*--------------------------------------------------------------|
|-18b20-----------------------------18---*----------------------------|
|-----------------------------------17b19-----------------------------|
|---------------------------------------------------------------------|
|---------------------------------------------------------------------|
|---------------------------------------------------------------------|

                         
|-------------------------------------------------------------------|
|----------------------------------18-------------------------------|
|---------15-15-17b19~-------------17b19--15-15-------15-15-17-17---|
|-17~~~~~--------------17~~~~~~-----------------17-17---------------|
|-------------------------------------------------------------------|
|-------------------------------------------------------------------|

 tremolo pick
|--------------------------------------------------------------------------|
|-18--*--------------------------------------------------------------------|
|-17b19--------15-15-17-17-15-15-19-19-15-15-19-19-15-15-19-19-15-15-19-19-|
|--------15-15-------------------18-18-------18-18-------18-18-------18-18-|
|--------------------------------------------------------------------------|
|--------------------------------------------------------------------------|

|--------------------------------------------------------------------------|
|--------------------------------------------------------------------------|
|-15-15-19-19-15-15-19-19-15-15-19-19-15-15-19-19-15-15-19-19-15-15-19-19--|
|-------18-18-------18-18-------18-18-------18-18-------18-18-------18-18--|
|--------------------------------------------------------------------------|
|--------------------------------------------------------------------------|

|------------------------------------------------------------------------|
|------------------------------------------------------------------------|
|----------------------------------------3-5-3---------------------------|
|-3h5-3~----------3h5-3~-----------------3-5-3------------------------5~-|
|--------1h3p1-5~--------1h3p1-5~--------1-3-1-5~---------------------5~-|
|--------------5~--------------5~-3h5-3--------5~--0h3-0h3-0h3--0h3h5-5~-|
 
|------------------------------------------------------------------------|
|------------------------------------------------------------------------|
|----------------------------------------3-5-3---------------------------|
|-3h5-3~----------3h5-3~-----------------3-5-3------------------------5~-|
|--------1h3p1-5~--------1h3p1-5~--------1-3-1-5~---------------------5~-|
|--------------5~--------------5~-3h5-3--------5~--0h3-0h3-0h3--0h3h5-5~-|

|--------------------------------------------------------------------------|
|--------------------------------------------------------------------------|
|--------------------------------------------------------------------------|
|-3h5-3~------------------------------5~--3h5-3~---------------------------|
|--------1h3p1-5~---------------------5~---------1h3p1-5~--------------5---|
|--------------5~--0h3-0h3-0h3--0h3h5-5~---------------5~--0h3p0h3p0h3h5---|

Sweet Song

            
            
Suggest correction
Creating personal tab
Creating personal tab
You can edit any tab online and save it as your Personal.

You can edit, replace or remove any tab part or add personal notes – all changes will be seen only by you.

Personal tabs can be accessed anytime from any device, even offline.
Learn more »
comments
print report bad tab
4 comments total. Showing first comments.
0 reply
celtic15 10 Dec 06, 2009 12:38 PM

thanks dude =D
tabs 100% accurate, im having a bit of trouble playing the solo buti'l get there eventually, thank you =D

0 reply
Izaak247 120 Jun 24, 2012 11:23 AM

Some of this is pretty awkward to play

0 reply
Izaak247 120 Jun 24, 2012 11:24 AM

O I pretty playing 8h10p8 on the a string foe the intro

guest
You may want to rate the tab now too:
select rating
Wanna post a correction for this tab? Suggest correction