Oops, an error
Loading. Please wait.

Pirate Song Tab

3,975 views 12 this week
no commentswrite comment
1 2 3 4 5
please rate
add to favorites
launch autoscroll
font size
0
reset
how to read this tab
guitar tuner
Autoscroll
slow
fast
+/-
esc
set tempo
stop
Help us to improve Ultimate-Guitar.com Take our survey!
×
Pirate Song
The Antics
Last Ciggarette (Cheesemelt Records)


Intro
e|---------10-8-7---------------7-10-10-10-10-|
B|----8-----------10-8-7--8-8-8---------------|
G|--------------------------------------------|
D|--------------------------------------------|
A|--------------------------------------------|
E|--------------------------------------------|

e|---------10-8-7---------------7-------------|
B|----8-----------10-8-7--8-8-8---10-10-10-10-|
G|--------------------------------------------|
D|--------------------------------------------|
A|--------------------------------------------|
E|--------------------------------------------|

e|---------10-8-7---------------7-10-10-10-10-|
B|----8-----------10-8-7--8-8-8---------------|
G|--------------------------------------------|
D|--------------------------------------------|
A|--------------------------------------------|
E|--------------------------------------------|

e|----8----7--------------------|
B|--------------10----7----8----|
G|------------------------------|
D|------------------------------|
A|------------------------------|
E|------------------------------|
end Intro

Verses pt 1.
 "lemme tell ya a tale..."
e|----------------------------|----------------------------|
B|----------------------------|----------------------------|
G|----------7~----9~----5~----|----------7~----5~----7~----|
D|----5~----7~----9~----5~----|----5~----7~----5~----7~----|
A|----5~----5~----7~----3~----|----5~----5~----3~----5~----|
E|----3~----------------------|----3~----------------------| x2

pt.2
 "I met her in totouga, a lovley spanish girl"
e|---------------------------|----------------------------|
B|---------------------------|----------------------------|
G|---------7777-9999-3333----|---------7777-5555-7777-----|
D|----5555-7777-9999-3333----|----5555-7777-5555-7777-----|
A|----5555-5555-7777-5555----|----5555-5555-3333-5555-----|
E|----3333-------------------|----3333--------------------| x2

Pre-Chorus 
 "just twenty miles...."
e|----------------------------------------------|
B|----------------------------------------------|
G|----222222222-55555555-77777777-------7777----|
D|----222222222-55555555-77777777--5555-7777----|
A|----000000000-33333333-55555555--5555-5555----|
E|---------------------------------3333---------| 

e|---------------------------------------------|
B|---------------------------------------------|
G|----22222222-55555555-77777777---------------|
D|----22222222-55555555-77777777--5555-2222----|
A|----00000000-33333333-55555555--5555-2222----|
E|--------------------------------3333-0000----|

e|----------------------------------------------|
B|----------------------------------------------|
G|----222222222-55555555-77777777-------7777----|
D|----222222222-55555555-77777777--5555-7777----|
A|----000000000-33333333-55555555--5555-5555----|
E|---------------------------------3333---------|

e|----------------------------------------------|
B|----------------------------------------------|
G|----222222222-55555555-7---7-----77-7-5-4-----|
D|----222222222-55555555-7---7-----77-7-5-4-5---|
A|----000000000-33333333-5---5-----55-5-3-2-5---|
E|------------------------------------------3---|

Chorus
 "yo ho oh, yo ho hey, yo ho oi, im a pirate today"
e|-----------------------------------------------|
B|-----------------------------------------------|
G|---------7777------5555------7777-5555-7777----|
D|----5555-7777-5555-5555-5555-7777-5555-7777----|
A|----5555-5555-5555-3333-5555-5555-3333-5555----|
E|----3333------3333------3333-------------------|

e|-----------------------------------------------------|
B|-----------------------------------------------------|
G|---------7777------5555------7777--9----7----5----7--|
D|----5555-7777-5555-5555-5555-7777--9----7----5----7--|
A|----5555-5555-5555-3333-5555-5555--7----5----3----5--|
E|----3333------3333------3333-------------------------|

Intro x1
Verses x1
Pre-Chorus x1
Chorus x1

Intro w/ alternate ending
e|----8----7----10--------------|
B|--------------------7----8----|
G|------------------------------|
D|------------------------------|
A|------------------------------|
E|------------------------------|

Verses x1 (with pauses at "ARR")
Chorus x1
Verse pt. 2 (with pauses at "ARR")

Outro (play until fade out)
 "you will never find me treasure..."
e|--------7-7-----10-10-----7-7-8-7-----|
B|----8-8-----8-8-------8-8---------10-8|
G|--------------------------------------|
D|--------------------------------------|
A|--------------------------------------|
E|--------------------------------------|
Suggest correction new What's this?
You can suggest a correction to this tab. Community and Mods will review your correction and vote to approve or reject it.
comments
We did not receive enough feedback on this tab! Please rate:
print report bad tab
1 2 3 4 5
guest
You may want to rate the tab now too:
select rating
Please do not post tabs as comments. Select "correction" instead!