Oops, an error
Loading. Please wait.

Atrophy Chords

13,925 views 18 this week
6 commentsread comments
1 2 3 4 5
x 8
add to favorites
launch autoscroll
font size
0
reset
transpose
0
reset
display chords
guitar tuner
×
Best way to learn
"Atrophy"
Autoscroll
slow
fast
+/-
esc
set tempo
stop
-------------------------------------------------------------------------------
                             ATROPHY - The Antlers
-------------------------------------------------------------------------------
Tabbed by: Kyle R.K.
Email: warpig0001@gmail.com

Tuning: Standard

There should only be a few songs from Hospice now without tabs...

Chords used:

D add F#   D add C#   
-2-        -2-
-3-        -3-
-2-        -2-
-4-        -0-
-x-        -4-
-x-        -x-


A:    Bm:   G:   D :  Em:
-0-   -2-   -3-  -2-  -0-
-2-   -3-   -3-  -3-  -0-
-2-   -4-   -0-  -2-  -0-
-2-   -4-   -0-  -0-  -2-
-0-   -2-   -2-  -x-  -2-
-x-   -x-   -3-  -x-  -0-


            Bm                  DaddF#                     G        D  DaddC#
You've been living awhile in the front of my skull, making orders...

            Bm                         DaddF#               G        D DaddC#
You've been writing me rules, shrinking maps, and redrawing borders...



And so on and so forth. In the instrumental bit with the cool piano melody,
the chords are:

Em, D add F#, Bm, A.
Suggest correction
comments
print report bad tab
6 comments total. Showing first comments.
0 reply
rellik1209 10 May 30, 2013 04:59 PM

does anybody know the chords to the bit at the very end???

0 reply
Matisa 394 Apr 15, 2015 10:22 AM

For some reason the tabs disappeared:

------------------------
----0-------------------
----4-------------------
----0----7----4----2----
----5----5----5----4----
----3----3----3----5----

0 reply
nerwal 10 Feb 05, 2016 10:18 AM

wrong chords, they change through the song as well.

also you forgot the last part... "someone, oh anyone..."

guest
You may want to rate the tab now too:
select rating
Wanna post a correction for this tab? Suggest correction