Oops, an error
Loading. Please wait.

Atrophy Chords

12,662 views 18 this week
6 commentsread comments
1 2 3 4 5
accurate
x 6
add to favorites
launch autoscroll
font size
0
reset
transpose
0
reset
display chords
guitar tuner
Tab Pro tools
  • play this tab
  • loop segment
  • change instrument
  • show fretboard
  • metronome
×
Best way to learn
"Atrophy"
Autoscroll
slow
fast
+/-
esc
set tempo
stop
-------------------------------------------------------------------------------
                             ATROPHY - The Antlers
-------------------------------------------------------------------------------
Tabbed by: Kyle R.K.
Email: warpig0001@gmail.com

Tuning: Standard

There should only be a few songs from Hospice now without tabs...

Chords used:

D add F#   D add C#   
-2-        -2-
-3-        -3-
-2-        -2-
-4-        -0-
-x-        -4-
-x-        -x-


A:    Bm:   G:   D :  Em:
-0-   -2-   -3-  -2-  -0-
-2-   -3-   -3-  -3-  -0-
-2-   -4-   -0-  -2-  -0-
-2-   -4-   -0-  -0-  -2-
-0-   -2-   -2-  -x-  -2-
-x-   -x-   -3-  -x-  -0-


            Bm                  DaddF#                     G        D  DaddC#
You've been living awhile in the front of my skull, making orders...

            Bm                         DaddF#               G        D DaddC#
You've been writing me rules, shrinking maps, and redrawing borders...



And so on and so forth. In the instrumental bit with the cool piano melody,
the chords are:

Em, D add F#, Bm, A.
comments
print report bad tab
6 comments total. Showing first comments.
0 reply
rellik1209 wrote on May 30 2013, 08:59 pm

does anybody know the chords to the bit at the very end???

0 reply
7thString wrote on November 1 2013, 10:20 am

Hard to figure out the chords at the end, this is what I have so far hope it helps..

Some-one oh anyone tell me how to stop this
--------x--------x--------x--------x--------
--------x--------x--------x--------x--------
--------9--------7--------4--------2--------
--------5--------5--------0--------0--------
--------7--------7--------5--------0--------
--------x--------x--------x--------x--------

+1 reply
antdos wrote on April 7 2014, 10:37 am

Try Gb, Db, Ab (or G, D, A with a Capo on 1)... then pick out just a couple of strings of each for the bit just after "I lay still in bed beside her".

I want to post or [tab]
guest
You may want to rate the tab now too:
select rating
Please do not post tabs as comments. Select "correction" instead!