Oops, an error
Loading. Please wait.

Nashua Chords

version 1
version 1

Whole song

3,779 views 1 this week
2 commentsread comments
1 2 3 4 5
x 6
add to favorites
launch autoscroll
font size
0
reset
transpose
0
reset
simplify chords
display chords
guitar tuner
Autoscroll
slow
fast
+/-
esc
set tempo
stop
Help us to improve Ultimate-Guitar.com Take our survey!
×
Song:           Nashua
Artist:         The Antlers
Album:          Uprooted
tabbed by James van Rooyen

Intro:
           F       Am      C         G  F#
e--------|--------------------3-------------|----|
B--5b3-1-|-1-1-1-1-1-1-1-1------3~--(3)-2---|----|
G--------|-2-0-2-0-2-0-2-0---0--4~--(4)-3---|----|
D--------|-3-3-3-3-2-2-2-2--2---5~--(5)-4---|----|
A--------|---------0-------3----------------|----|
E--------|-1--------------------3~--(3)-2---|----|

Final part of outro:
   G   G6  G7
e------0---1~--|
B--3---0---0---|
G--0---0---0---|
D--0---0---0---|
A--2---2---2---|
E--3---3---3---|

Verse:
F
You shouldn't wait
             Am
You couldn't walk
          C              G
It wasn't written out in chalk
          F             Am
It wasn't faith, not divine
         C              G
The lacerations in your spine
           F  Am
But that's no excuse
                G
I could've been so much better for you

Chorus:
F   Am        Dm             G
You    should take it out on me
              Dm             G
But you won't take it out on me
           Dm       F      Am7                 G
You should hate the water, you should hate the world
F   Am  Dm             G
You     need to cut me out
             Dm           G
Because I'll only let you down
      Dm      F        Am7              G
You deserve attention, I can't give you that


Repeat for following verses and choruses


I shouldn't feel that every week
I'm making promise I cant keep
That's not fair, that's not right
You're not sleeping much at night
That I'm no good for you
I should've been so much better for you

And all I've done in half a year
Is sent one letter out of fear
On your birthday September 10th
And I haven't sent again
Because it's no use
Because I can't seem to stitch you

You should take it out on me
But you won't take it out on me
You should hate the water, you should hate the world
You need to cut me out
Because I'll only let you down
You deserve attention, I can't give you that

Because I'm no good news
I should've been so much better for you

Outro: repeat intro
Suggest correction
comments
print report bad tab
2 comments total.
+1 reply
Saitenstechen 282 May 29, 2013 12:30 PM

This is the way I play it;
sounds a little nicer IMHO.

F Am F G F#
e--------|---------------------0-3-------------|----|
B--5b3-1-|-1-1-1-1-1-1-1-1-1-1-1-1-3~--(3)-2---|----|
G--------|-2-0-2-0-2-0-2-0-2-2-2-2-4~--(4)-3---|----|
D--------|-3-3-3-3-2-2-2-2-3-3-3-3-5~--(5)-4---|----|
A--------|---------0-------3-3-----------------|----|
E--------|-1-----------------------3~--(3)-2---|----|

0 reply
strong_wizard 407 Apr 26, 2015 06:37 AM

That second F isn't part of the song, it's a C chord. Might sound nicer to you, but it's incorrect

guest
You may want to rate the tab now too:
select rating
Wanna post a correction for this tab? Suggest correction