Oops, an error
Loading. Please wait.

Zelda Bass Tab

1,395 views 9 this week
no commentswrite comment
1 2 3 4 5
please rate
add to favorites
launch autoscroll
font size
0
reset
guitar tuner
Autoscroll
slow
fast
+/-
esc
set tempo
stop
Help us to improve Ultimate-Guitar.com Take our survey!
×
Author
Difficulty
intermediate
-------------------------------------------------------------------------------
                             Zelda - The Antlers
-------------------------------------------------------------------------------
Tabbed by: tolta
E-mail: samuelhgflax@gmail.com


Did this pretty quickly, I play this main walk with variations throughout the song, but 
if anybody has any lines they want to add, just email me!

Tuning:
         bu bo      bu  bo    da  bo    da  bo    da bo de da   bo da bum dum
G|-----------------------------------------------------------------------------|
D|-----------------------------------------------------------------------------|
A|---------------------------------------5-------------------------------------|
E|---7--10---7--10---5--8---5--8---3--6----6---0--3--6--9----------------------|
         da bo de bum bo bo hum
G|---------------------------------------------------------------------------|
D|---------------------------------------------------------------------------|
A|--------5------------------------------------------------------------------|
E|---3--6----2---0--3--9-----------------------------------------------------|
       Zelda,        You asked me to wake you If I woke up before you
G|-----------------------------------------------------------------------------|
D|-----------------------------------------------------------------------------|
A|-------------------------------------------------5---------------------------|
E|---7--10---7--10-------------5--8---5--8---3--6----6-------------------------|
         And you were still stuck inside                       I'm here to tell you, 
"We're not awake yet"
G|---------------------------------------------------------------------------|
D|---------------------------------------------------------------------------|
A|-----------------------------------------------5---------------------------|
E|--------7--10--5--8 ----------------------3--6----3------0--3--9-----------|



| /  slide up
| \  slide down
| h  hammer-on
| p  pull-off
| ~  vibrato
| +  harmonic
| x  Mute note
===============================================================================
Suggest correction
Give kudos to tab author, rate the tab!
1 2 3 4 5
comments
print report bad tab
guest
You may want to rate the tab now too:
select rating
Please do not post tabs as comments. Select "correction" instead!