Oops, an error
Loading. Please wait.

Zelda chords

version 2
version 2

Whole song

6,247 views 18 this week
2 commentsread comments
1 2 3 4 5
x 7
add to favorites
×
Save as Personal and add changes to this tab that will be seen only by you. Learn more ›
×
You can save this tab as Personal to edit and correct it or add notes. All changes will be seen only by you. Learn more »
launch autoscroll
font size
0
reset
transpose
0
reset
display chords
guitar tuner
edit
Autoscroll
slow
fast
+/-
esc
set tempo
stop
Strumming
There is no strumming pattern for this song yet. and get +5 IQ
The Antlers - "Zelda", 2012
Chords by Hrad for Ultimate-Guitar, 2013
---

Standard Tuning, Capo 2

---

Short tab of lead riff:

         Am               G                 F                Em
e|--------------------0------------------------------------------------------|
B|-------1--------1h3-----3---0----0h1--3---1--------1p0---------------------|
G|---0h2-----2----------------------------------2--------2---0---------------|
D|-2-------------------------------------------------------------2-----0-----|
A|-------------------------------------------------------------------3---3---|
E|---------------------------------------------------------------------------|

   Dm               C               | Am
e|----------------------------------|--------|
B|----------------------------------|-1------|
G|------------------------------0h2-|-----2--| etc.
D|-3h5--3------0----2h3--2----2-----|--------|
A|-----------3---3------------------|--------|
E|----------------------------------|--------|

---

Intro: Am, G, F, Em, Dm, C

Am
Zelda,
                G
You asked me to wake you
               F
If I woke up before you,
                   Em
And you were still stuck inside.
            Dm                    C
I'm here to tell you, "We're not awake yet."

Instrumental - Am, G, F, Em, Dm, C

Am
Zelda,
                G
We live between two worlds-
              F
A tunnel with two lights,
                    Em
Pitch black in the middle.
            Dm                  C
Like a dream's dream (A copy's copy)

Am
Zelda,
                G
It's just not important-
                     F
The small things we suffer,
              Em
They're infinitesimal.
                   Dm
We swim in an ocean.
            C
It swims between us.

Am, G, F, Em, Dm, C until end

            
            
Suggest correction
Creating personal tab
Creating personal tab
You can edit any tab online and save it as your Personal.

You can edit, replace or remove any tab part or add personal notes – all changes will be seen only by you.

Personal tabs can be accessed anytime from any device, even offline.
Learn more »
comments
print report bad tab
2 comments total.
0 reply
OMterria 10 Aug 10, 2014 10:44 AM

Amazing tab! I'd love to see the lead worked out though!

guest
You may want to rate the tab now too:
select rating
Wanna post a correction for this tab? Suggest correction