Oops, an error
Loading. Please wait.

Zelda Chords

version 2
version 2

Whole song

5,149 views 9 this week
2 commentsread comments
1 2 3 4 5
excellent!
x 7
add to favorites
launch autoscroll
font size
0
reset
transpose
0
reset
display chords
guitar tuner
Autoscroll
slow
fast
+/-
esc
set tempo
stop
Help us to improve Ultimate-Guitar.com Take our survey!
×
Author
Difficulty
Capo
novice
2nd fret
The Antlers - "Zelda", 2012
Chords by Hrad for Ultimate-Guitar, 2013
---

Standard Tuning, Capo 2

---

Short tab of lead riff:

         Am               G                 F                Em
e|--------------------0------------------------------------------------------|
B|-------1--------1h3-----3---0----0h1--3---1--------1p0---------------------|
G|---0h2-----2----------------------------------2--------2---0---------------|
D|-2-------------------------------------------------------------2-----0-----|
A|-------------------------------------------------------------------3---3---|
E|---------------------------------------------------------------------------|

   Dm               C               | Am
e|----------------------------------|--------|
B|----------------------------------|-1------|
G|------------------------------0h2-|-----2--| etc.
D|-3h5--3------0----2h3--2----2-----|--------|
A|-----------3---3------------------|--------|
E|----------------------------------|--------|

---

Intro: Am, G, F, Em, Dm, C

Am
Zelda,
                G
You asked me to wake you
               F
If I woke up before you,
                   Em
And you were still stuck inside.
            Dm                    C
I'm here to tell you, "We're not awake yet."

Instrumental - Am, G, F, Em, Dm, C

Am
Zelda,
                G
We live between two worlds-
              F
A tunnel with two lights,
                    Em
Pitch black in the middle.
            Dm                  C
Like a dream's dream (A copy's copy)

Am
Zelda,
                G
It's just not important-
                     F
The small things we suffer,
              Em
They're infinitesimal.
                   Dm
We swim in an ocean.
            C
It swims between us.

Am, G, F, Em, Dm, C until end
Suggest correction
comments
print report bad tab
2 comments total.
0 reply
OMterria 10 wrote on August 10 2014, 02:44 pm

Amazing tab! I'd love to see the lead worked out though!

0 reply
Hrad 242 wrote on April 10 2015, 12:06 pm

         Am               G                 F                Em
e|--------------------0------------------------------------------------------|
B|-------1--------1h3-----3---0----0h1--3---1--------1p0---------------------|
G|---0h2-----2----------------------------------2--------2---0---------------|
D|-2-------------------------------------------------------------2-----0-----|
A|-------------------------------------------------------------------3---3---|
E|---------------------------------------------------------------------------|

Dm C | Am
e|----------------------------------|--------|
B|----------------------------------|-1------|
G|------------------------------0h2-|-----2--| etc.
D|-3h5--3------0----2h3--2----2-----|--------|
A|-----------3---3------------------|--------|
E|----------------------------------|--------|

guest
You may want to rate the tab now too:
select rating
Wanna post a correction for this tab? Suggest correction