Oops, an error
Loading. Please wait.

Over Bass Tab

19 views 1 this week
no commentswrite comment
1 2 3 4 5
3 more votes to show rating
add to favorites
launch autoscroll
font size
0
reset
guitar tuner
Autoscroll
slow
fast
+/-
esc
set tempo
stop
Help us to improve Ultimate-Guitar.com Take our survey!
×
Author
Difficulty
novice
[Intro]

G|------------------|-----------------|-----------------|-----------------|
D|------------------|-7-7-7-7-7-7-7-7-|-6-6-6-6-6-6-6-6-|-4-4-4-4-4-4-4-4-|
A|--7-7-7-7-7-7-7-7-|-----------------|-----------------|-----------------|
E|------------------|-----------------|-----------------|-----------------|


G|-------------|-------------|-------------|-------------|
D|-5---5--5--5-|-5---5--5--5-|-5---5--5--5-|-5---5--5--5-|
A|-------------|-------------|-------------|-------------|
E|-------------|-------------|-------------|-------------|


[Verse 1]

G|-------------|-------------|-------------|-------------| (x2)
D|-5---5--5--5-|-5---5--5--5-|-5---5--5--5-|-5---5--5--5-|
A|-------------|-------------|-------------|-------------|
E|-------------|-------------|-------------|-------------|


[Pre-Chorus]

G|-------------|-------------|-------------|-------------|
D|-------------|-------------|-------------|-------------|
A|-0---0--0--0-|-2---2--2--2-|-4---4--4--4-|-6---6--6--6-|
E|-------------|-------------|-------------|-------------|


G|-------------|-------------|-------------|-------------------|---------------|
D|-------------|-7---7--7--7-|-------------|-7-7--7-7-7-7-7-7--|---------------|
A|-7---7--7--7-|-------------|-7---7--7--7-|-------------------|---------------|
E|-------------|-------------|-------------|-------------------|----------12-\-|


[Chorus]

G|-----------------|---------------|-------------------|---------.-------|
D|-------------6---|-7-7-7-7-7-6---|-6-6-6-6-6-6-4-6-4-|-4-4-4-4-6-6-4-6-|
A|-7-7-7-7-7-9---9-|-------------7-|-------------------|-----------------|
E|-----------------|---------------|-------------------|-----------------|


G|-----------------|---------------|-------------------|----------------|
D|-------------6---|-7-7-7-7-7-6---|-6-6-6-6-6-6-4-6-4-|-4-4-4-4-4---4--|
A|-7-7-7-7-7-9---9-|-------------7-|-------------------|-----------7----|
E|-----------------|---------------|-------------------|----------------|


[Interlude]

G|-------------|-------------|-------------|-------------|
D|-5---5--5--5-|-5---5--5--5-|-5---5--5--5-|-5---5--5--5-|
A|-------------|-------------|-------------|-------------|
E|-------------|-------------|-------------|-------------|


[Verse 2]

G|-------------|-------------|-------------|-------------| (x2)
D|-5---5--5--5-|-5---5--5--5-|-5---5--5--5-|-5---5--5--5-|
A|-------------|-------------|-------------|-------------|
E|-------------|-------------|-------------|-------------|


[Pre-Chorus]

G|-------------|-------------|-------------|-------------|
D|-------------|-------------|-------------|-------------|
A|-0---0--0--0-|-2---2--2--2-|-4---4--4--4-|-6---6--6--6-|
E|-------------|-------------|-------------|-------------|


G|-------------|-------------|-------------|--------------------|---------------|
D|-------------|-7---7--7--7-|-------------|-7-7-7-7-7-7-7-7-7--|---------------|
A|-7---7--7--7-|-------------|-7---7--7--7-|--------------------|----------18-\-|
E|-------------|-------------|-------------|--------------------|---------------|


[Chorus]

G|-----------------|---------------|-------------------|-----------4-------|
D|-------------6---|-7-7-7-7-7-6---|-6-6-6-6-6-6-4-6-4-|-4-4-4-4h6---6-4-4-|
A|-7-7-7-7-7-9---9-|-------------7-|-------------------|-------------------|
E|-----------------|---------------|-------------------|-------------------|


G|-----------------|---------------|-------------------|---------4-----|
D|-------------6---|-7-7-7-7-7-6---|-6-6-6-6-6-6-4-6-4-|-4-4-4-6---6-\-|
A|-7-7-7-7-7-9---9-|-------------7-|-------------------|---------------|
E|-----------------|---------------|-------------------|---------------|


[Bridge]

G|----------------|----------------|----------------|----------------|
D|----------------|----------------|----------------|----------------|
A|----------------|----------------|----------------|----------------|
E|-1--------------|----------------|--5-------------|----------------|


G|-----------------|----------------|----------------|-----------------|
D|-----------------|----------------|----------------|-----------------|
A|-----------------|----------------|----------------|-----------------|
E|--1--------------|----------------|--5---------5-5-|-5-5-5-5-5-5-5-5-|


G|-------------|-------------|-------------|--------------------|---------------|
D|-------------|-7---7--7--7-|-------------|-7-7-7-7-7-7-7-7-7--|---------------|
A|-7---7--7--7-|-------------|-7---7--7--7-|--------------------|----------14-\-|
E|-------------|-------------|-------------|--------------------|---------------|


[Outro]

G|-----------------|---------------|-------------------|-------4-----------|
D|-------------6---|-7-7-7-7-7-6---|-6-6-6-6-6-6-4-6-4-|-4-4h6---6-4-------|
A|-7-7-7-7-7-9---9-|-------------7-|-------------------|-------------7-4---|
E|-----------------|---------------|-------------------|-----------------7-|


G|-----------------|---------------|-------------------|-------4---4-4-----|
D|-------------6---|-7-7-7-7-7-6---|-6-6-6-6-6-6-4-6-4-|-4-4h6---6-----6-4-|
A|-7-7-7-7-7-9---9-|-------------7-|-------------------|-------------------|
E|-----------------|---------------|-------------------|-------------------|


G|-----------------|---------------|-------------------|-----------4-------|
D|-------------6---|-7-7-7-7-7-6---|-6-6-6-6-6-6-4-6-4-|-4-4-4-4h6---6-4-6-|
A|-7-7-7-7-7-9---9-|-------------7-|-------------------|-------------------|
E|-----------------|---------------|-------------------|-------------------|


G|-----------------|---------------|-------------------|-------4---4-------|
D|-------------6---|-7-7-7-7-7---7-|-6-6-6-6-6-6-4-6-4-|-4-4h6---6---6-4-6-|
A|-7-7-7-7-7-9---9-|-----------7---|-------------------|-------------------|
E|-----------------|---------------|-------------------|-------------------|


G|-----------------|---------------|-------------4-----|----------------|
D|-------------6---|-7-7-7-7-7-6---|-6-6-6-6-6-6---6-4-|-4-4-4-4-4------|
A|-7-7-7-7-7-9---9-|-------------7-|-------------------|-----------7--\-|
E|-----------------|---------------|-------------------|----------------|


G|-----------------|---------------|-------------------|-------4---4h6p4-----|
D|-------------6---|-7-7-7-7-7-6---|-6-6-6-6-6-6-4-6-4-|-4-4h6---6-------6-4-|
A|-7-7-7-7-7-9---9-|-------------7-|-------------------|---------------------|
E|-----------------|---------------|-------------------|---------------------|


G|-----------------|---------------|--------------------------------4-----|
D|-------------6---|-7-7-7-7-7-6---|-6-6-6-6-6-6-4-6----4-4-4-4-4h6---6-4-|
A|-7-7-7-7-7-9---9-|-------------7-|-----------------7--------------------|
E|-----------------|---------------|--------------------------------------|

                                                        (fade out)
G|-----------------|---------------|-------------------|----------|
D|-------------6---|-7-7-7-7-7-6---|-6-6-6-6-6-6-4-6-4-|-4-4-4-4--|
A|-7-7-7-7-7-9---9-|-------------7-|-------------------|----------|
E|-----------------|---------------|-------------------|----------|



*********************

| \ : slide down
| h : hammer-on
| p : pull-off
| . : staccato

*********************

in regular sequence!
Suggest correction
Give kudos to tab author, rate the tab!
1 2 3 4 5
comments
print report bad tab
guest
You may want to rate the tab now too:
select rating
Wanna post a correction for this tab? Suggest correction