Oops, an error
Loading. Please wait.

Energy tab

version 1
version 1

Whole song

11,133 views 3 this week
2 commentsread comments
1 2 3 4 5
x 4
add to favorites
×
Save as Personal and add changes to this tab that will be seen only by you. Learn more ›
×
You can save this tab as Personal to edit and correct it or add notes. All changes will be seen only by you. Learn more »
launch autoscroll
font size
0
reset
how to read this tab
guitar tuner
edit
Autoscroll
slow
fast
+/-
esc
set tempo
stop
Author
Difficulty
-------------------------------------------------------------------------------
                           Energy - Apples in Stereo
-------------------------------------------------------------------------------
Tabbed by: Guthrie Weinschenk

Tuning: Standard

Chorus, pretty easy--

e|---7---7--7-7--7-7--7777-|--2---2--2-2--2-2--2222--|
B|---7---7--7-7--7-7--7777-|--2---2--2-2--2-2--2222--|
G|---8---8--8-8--8-8--8888-|--3---3--3-3--3-3--3333--|
D|---9---9--9-9--9-9--9999-|--4---4--4-4--4-4--4444--|
A|---9---9--9-9--9-9--9999-|--4---4--4-4--4-4--4444--|
E|---7---7--7-7--7-7--7777-|--2---2--2-2--2-2--2222--|

e|--4---4--4-4--4-4--4444--|--0---0--0-0--0----------|
B|--7---7--7-7--7-7--7777--|--0---0--0-0--0----------|
G|--5---5--5-5--5-5--5555--|--1---1--1-1--1----------|
D|--6---6--6-6--6-6--6666--|--2---2--2-2--2----------|
A|--6---6--6-6--6-6--6666--|--2---2--2-2--2----------|
E|--4---4--4-4--4-4--4444--|--0---0--0-0--0----------|


Bridge:

e|------------------------------|------------------------------|
B|------------------------------|------------------------------|
G|------------------------------|------------------------------|
D|---6-6-----4-4---2-2--22-2-2--|---6-6-----4-4----6--4--2-2---|
A|---6-6-----4-4---2-2--22-2-2--|---6-6-----4-4----6--4--2-2---|
E|---4-4-----2-2---0-0--00-0-0--|---4-4-----2-2----4--2--0-0---|




Small Solo Part:
BTW, throw on a slide!

e|------------------------------------------------------------|
B|--14--11---9-----16--12------14---11-9-11-9----16---12------|
G|------------------------------------------------------------|
D|------------------------------------------------------------|
A|------------------------------------------------------------|
E|------------------------------------------------------------|

Hope you enjoy the tab, there wasn't a good version out, so I had to make one ;-)



            
            
Suggest correction
Creating personal tab
Creating personal tab
You can edit any tab online and save it as your Personal.

You can edit, replace or remove any tab part or add personal notes – all changes will be seen only by you.

Personal tabs can be accessed anytime from any device, even offline.
Learn more »
comments
print report bad tab
2 comments total.
0 reply
Sweetsiroco 10 May 27, 2009 05:53 AM

Ca devrait être :

4 instead of 4
5 7
6 5
6 6
4 6
4 4

0 reply
MManson_666 10 Jul 30, 2009 10:08 PM

awesome tab

guest
You may want to rate the tab now too:
select rating
Wanna post a correction for this tab? Suggest correction