Oops, an error
Loading. Please wait.

Energy tab

version 2
version 2

Whole song

3,969 views 1 this week
3 commentsread comments
1 2 3 4 5
1 last vote to show rating
add to favorites
×
Save as Personal and add changes to this tab that will be seen only by you. Learn more ›
×
You can save this tab as Personal to edit and correct it or add notes. All changes will be seen only by you. Learn more »
launch autoscroll
font size
0
reset
how to read this tab
guitar tuner
edit
Autoscroll
slow
fast
+/-
esc
set tempo
stop
Author
Difficulty
-------------------------------------------------------------------------------
                Energy - Apples in a stereo
-------------------------------------------------------------------------------
Tabbed by: alpay
Email: alpizle@yahoo.com

Tuning: normal

Intro
e|---------------------------------------------------------------------------|
B|---------------------------------------------------------------------------|
G|----------------------------------6-6-66-6-6-6-6--1-1-11-x-----------------|
D|--9-9-99-9-9-9-9--4-4-44-4-4-4-4--6-6-66-6-6-6-6--2-2-22-x-----------------|
A|--9-9-99-9-9-9-9--4-4-44-4-4-4-4--4-4-44-4-4-4-4--2-2-22-x-----------------|
E|--7-7-77-7-7-7-7--2-2-22-2-2-2-2------------------0-0-00-x-----------------|
verse              play intro x2

verse              play intro x2

chorus             play chorus x2
e|---------------------------------------------------------------------------|
B|---------------------------------------------------------------------------|
G|------------11111111------------------11111--------------------------------|
D|--6-6--4-4--22222222----6-6--4-4--6-4-22222--------------------------------|
A|--6-6--4-4--22222222----6-6--4-4--6-4-22222--------------------------------|
E|--4-4--2-2--00000000----4-4--2-2--4-2-00000--------------------------------|

verse              play intro x2

chorus             play chorus x2

guitar solo        your on your own on that

verse             repeat verse until end of song and end on Bm, wich is
e|---------------------------------------------------------------------------|
B|---------------------------------------------------------------------------|
G|---------------------------------------------------------------------------|
D|--9~-----------------------------------------------------------------------|
A|--9~-----------------------------------------------------------------------|
E|--7~-----------------------------------------------------------------------|

Lerics to the song:
verse 1: And the world is made of energy,
and the world is electricity,
And the world is made of energy
and there's a light inside of you
and there's a light inside of me.

verse 2:
And the world is made of energy
And the world is synchronicity,
And the world is made of energy
And there's a light inside of you
And there's a light inside of me

chorus:
It's gonna be     alright
It's gonna be alright uh huh yeah
were gonna see    sunlight
were gonna see sunlight uh huh yeah

verse 3:
And the world is made of energy
And the world is possibility
And the world is made of energy
And there's a light inside of you
And there's a light inside of me

chorus
guitar solo (no singing required in the solo)
verse 1
verse 1
End

            
            
Suggest correction
Creating personal tab
Creating personal tab
You can edit any tab online and save it as your Personal.

You can edit, replace or remove any tab part or add personal notes – all changes will be seen only by you.

Personal tabs can be accessed anytime from any device, even offline.
Learn more »
Give kudos to tab author, rate the tab!
1 2 3 4 5
comments
print report bad tab
3 comments total.
0 reply
Reint 103 Dec 20, 2007 09:27 AM

The band is called Apples in Stereo. You will get a better rating, if you edit the name. (y)

0 reply
Schwabee 256 Nov 17, 2008 05:15 PM

The other version has the right way to play the chords. You had the right idea you just wrote it a little wrong.

0 reply
Stormx 408 Nov 24, 2008 09:36 AM

Completely incorrect? No power chords involved dude :/

guest
You may want to rate the tab now too:
select rating
Wanna post a correction for this tab? Suggest correction