Oops, an error
Loading. Please wait.

Captain Hampton And The Midget Pirates Tab

version 1
version 1

Whole song

Interactive

190 views 1 this week
no commentswrite comment
1 2 3 4 5
please rate
add to favorites
launch autoscroll
font size
0
reset
how to read this tab
guitar tuner
Tab Pro tools
  • play this tab
  • loop segment
  • change instrument
  • show fretboard
  • metronome
Autoscroll
slow
fast
+/-
esc
set tempo
stop
Difficulty
novice
Intro
|-4~---|-2~---|-4~---|-2~---|-4~---|-2~---|-5~---|-2~---|
|-5~---|-3~---|-5~---|-4~---|-5~---|-4~---|-5~---|-4~---|
|-4~---|-2~---|-4~---|-4~---|-4~---|-4~---|-6~---|-4~---|
|-6~---|-4~---|-6~---|-4~---|-6~---|-4~---|-7~---|-4~---|
|------|------|------|------|------|------|------|------|
|------|------|------|------|------|------|------|------|

Verse
|--4-4-4-4-4-|--2-2-2-2-2-|--5-5-5-5-5-|------------|
|--5-5-5-5-5-|--3-3-3-3-3-|--5-5-5-5-5-|--7-7-7-7-7-|
|--4-4-4-4-4-|--2-2-2-2-2-|--6-6-6-6-6-|--8-8-8-8-8-|
|------------|------------|------------|--9-9-9-9-9-| x 2
|------------|------------|------------|------------|
|------------|------------|------------|------------|

Young Jim, as a lad
He looked for adventure
Calamity, danger, whatever was free
So when he turned ten, he packed his belongings
and he left home to find his destiny

Bridge
|-0--0-|-4--4-|-4--4-|-7--7-|
|-2--2-|-4--4-|-5--5-|-7--7-|
|-1--1-|-5--5-|-4--4-|-8--8-|
|------|------|------|------| x 2
|------|------|------|------|
|------|------|------|------|

Jim just a boy, who's
Head full of legends
Of dungeons and dragons
And pirates and stuff
So that summer he snuck on a schooner
To harpoon tuna
And get real buff

Verse 2
|--4-4-4-4-4-|--2-2-2-2-2-|--5-5-5-5-5-|------------|
|--5-5-5-5-5-|--3-3-3-3-3-|--5-5-5-5-5-|--7-7-7-7-7-|
|--4-4-4-4-4-|--2-2-2-2-2-|--6-6-6-6-6-|--8-8-8-8-8-|
|------------|------------|------------|--9-9-9-9-9-| x 2
|------------|------------|------------|------------|
|------------|------------|------------|------------|

The Captain he said
There's danger ahead
We need some brave men
To sail and then
We'll find us those pirates
Stop them with violence,
To make the ocean safe

Pre Chorus
|-4~----|
|-5~----|
|-4~----|
|-------|
|-------|
|-------|

Once again."

Chorus
|-----------------|-----------------|-----------------|-----------------|
|-----------------|-----------------|-----------------|-----------------|
|-9-9-9-9-9-9-9-9-|---------9-------|-----------------|---------9-------|
|-9-9-9-9-9-9-9-9-|-9-9-9-9-9-------|-9-9-9-9-9-9-9-9-|-7-7-7-7-9-------|
|-7-7-7-7-7-7-7-7-|-9-9-9-9-7-------|-9-9-9-9-9-9-9-9-|-7-7-7-7-7-------| x 2
|-----------------|-7-7-7-7---------|-7-7-7-7-7-7-7-7-|-5-5-5-5---------|

Cleaning up the oceans
Captain Hampton and his crew
Trouble in the seven seas
He'll know what to do
Captain, he hates rubbish
To him pirates are just soot
Scallywags and scurvy dogs
Are crushed under his foot.

Post Chorus
|-----------------|-----------------|----------------|----------------|
|-----------------|-----------------|----------------|----------------|
|-9-9-9-9-9-9-9-9-|-9-9-9-9-9-9-9-9-|-----11--9------|-----11--9------|
|-9-9-9-9-9-9-9-9-|-9-9-9-9-9-9-9-9-|-9-9-11--9--9-9-|-9-9-11--9--9-9-|
|-7-7-7-7-7-7-7-7-|-7-7-7-7-7-7-7-7-|-9-9-9---7--9-9-|-9-9-9---7--9-9-|
|-----------------|-----------------|-7-7--------7-7-|-7-7--------7-7-|

|-----------------|-----------------|----------------|
|-----------------|-----------------|----------------|
|-----------------|-----------------|----------------|
|-7-7-7-7-7-7-7-7-|-7-7-7-7-7-7-7-7-|-9~-------------|
|-7-7-7-7-7-7-7-7-|-7-7-7-7-7-7-7-7-|-9~-------------|
|-5-5-5-5-5-5-5-5-|-5-5-5-5-5-5-5-5-|-7~-------------|

Captain Hampton, Captain Hampton
Ahoy, Ahoy
Pillaging the Pillagers
Triumphantly he'll sail away

Pre Verse
|--7-7---7-7-7-|--5--5--7-----|--7-7---7-7-7-|--5--5--7-----|
|--9-9---9-9-9-|--5--5--7-----|--7-7---7-7-7-|--5--5--7-----|
|--9-9---9-9-9-|--6--6--8-----|--8-8---8-8-8-|--6--6--8-----|
|--------------|--------------|--------------|--------------|
|--------------|--------------|--------------|--------------|
|--------------|--------------|--------------|--------------|

|--7-7---7-7-7-|--5--5--7-----|--5-5---5-5-5-|--5--5--7-----|
|--9-9---9-9-9-|--5--5--7-----|--5-5---5-5-5-|--5--5--7-----|
|--9-9---9-9-9-|--6--6--8-----|--6-6---6-6-6-|--6--6--8-----|
|--------------|--------------|--------------|--------------|
|--------------|--------------|--------------|--------------|
|--------------|--------------|--------------|--------------|

Verse 3
|--4-4-4-4-4-|--2-2-2-2-2-|--5-5-5-5-5-|------------|
|--5-5-5-5-5-|--3-3-3-3-3-|--5-5-5-5-5-|--7-7-7-7-7-|
|--4-4-4-4-4-|--2-2-2-2-2-|--6-6-6-6-6-|--8-8-8-8-8-|
|------------|------------|------------|--9-9-9-9-9-| x 24
|------------|------------|------------|------------|
|------------|------------|------------|------------|

Now, seven weeks into the trip
And Jim was sick to death
Of being sick
Some kind of action he wanted
As he searched the seas
For everyday was the same old... stuff
The night he felt like jumping ship
But then he heard a crash
Hit the starboard side of the ship
And bumped him out of his bunk
Onto his bottom

Bridge 2
|----------------|-4--4-4-4-4-4-4-|-7--7-7-7-7-7-7-|-7--7-7-7-7-7-7-|
|-5--5-5-5-5-5-5-|-4--4-4-4-4-4-4-|-9--9-9-9-9-9-9-|-7--7-7-7-7-7-7-|
|-6--6-6-6-6-6-6-|-5--5-5-5-5-5-5-|-9--9-9-9-9-9-9-|-8--8-8-8-8-8-8-|
|-6--6-6-6-6-6-6-|----------------|----------------|----------------|
|----------------|----------------|----------------|----------------|
|----------------|----------------|----------------|----------------|

|----------------|-4--4-4-4-4-4-4-|-7--7-7-7-7-7-7-|-7~-------------|
|-5--5-5-5-5-5-5-|-4--4-4-4-4-4-4-|-9--9-9-9-9-9-9-|-7~-------------|
|-6--6-6-6-6-6-6-|-5--5-5-5-5-5-5-|-9--9-9-9-9-9-9-|-8~-------------|
|-6--6-6-6-6-6-6-|----------------|----------------|----------------|
|----------------|----------------|----------------|----------------|
|----------------|----------------|----------------|----------------|

Our heroes drew their swords
As the midgets swarmed aboard
The pirates surprise attack
The tiny buccaneers
Caught us by surprise
As we tried to battle back.

Chorus
|-----------------|-----------------|-----------------|-----------------|
|-----------------|-----------------|-----------------|-----------------|
|-9-9-9-9-9-9-9-9-|---------9-------|-----------------|---------9-------|
|-9-9-9-9-9-9-9-9-|-9-9-9-9-9-------|-9-9-9-9-9-9-9-9-|-7-7-7-7-9-------|
|-7-7-7-7-7-7-7-7-|-9-9-9-9-7-------|-9-9-9-9-9-9-9-9-|-7-7-7-7-7-------| x 2
|-----------------|-7-7-7-7---------|-7-7-7-7-7-7-7-7-|-5-5-5-5---------|

La la la la la la la, la la la la la la.
La la la la la la la, la la la la la la.
La la la la la la la, la la la la la la.
La la la la la la la, la la la la la la.

Post Chorus
|-----------------|-----------------|----------------|----------------|
|-----------------|-----------------|----------------|----------------|
|-9-9-9-9-9-9-9-9-|-9-9-9-9-9-9-9-9-|-----11--9------|-----11--9------|
|-9-9-9-9-9-9-9-9-|-9-9-9-9-9-9-9-9-|-9-9-11--9--9-9-|-9-9-11--9--9-9-|
|-7-7-7-7-7-7-7-7-|-7-7-7-7-7-7-7-7-|-9-9-9---7--9-9-|-9-9-9---7--9-9-|
|-----------------|-----------------|-7-7--------7-7-|-7-7--------7-7-|

|-----------------|-----------------|-----------------|-----------------|
|-----------------|-----------------|-----------------|-----------------|
|-----------------|-----------------|-----------------|-----------------|
|-7-7-7-7-7-7-7-7-|-7-7-7-7-7-7-7-7-|-9-9-9-9-9-9-9-9-|-9-9-9-9-9-9-9-9-|
|-7-7-7-7-7-7-7-7-|-7-7-7-7-7-7-7-7-|-9-9-9-9-9-9-9-9-|-9-9-9-9-9-9-9-9-|
|-5-5-5-5-5-5-5-5-|-5-5-5-5-5-5-5-5-|-7-7-7-7-7-7-7-7-|-7-7-7-7-7-7-7-7-|

Captain Hampton, Captain Hampton
Ahoy Ahoy
Pillaging the Pillagers
Triumphantly he ran away!

Final Chorus
|-------------------------|-------------------------|
|-------------------------|-------------------------| \
|-11-11-11-11-11-11-11-11-|-------------11----------| |
|-x--x--x--x--x--x--x--x--|-11-11-11-11-x-----------| |
|-9--9--9--9--9--9--9--9--|-x--x--x--x--9-----------| |
|-------------------------|-9--9--9--9--------------| | 
                                                       > x 2
|-------------------------|-------------------------| | 
|-------------------------|-------------------------| |
|-------------------------|---------11--------------| |
|-11-11-11-11-11-11-11-11-|-9-9-9-9-x---------------| |
|-x--x--x--x--x--x--x--x--|-x-x-x-x-9---------------| /
|-9--9--9--9--9--9--9--9--|-7-7-7-7-----------------|

Final Post Chorus
|-------------------------|-------------------------|
|-------------------------|-------------------------|
|-11-11-11-11-11-11-11-11-|-11-11-11-11-11-11-11-11-|
|-11-11-11-11-11-11-11-11-|-11-11-11-11-11-11-11-11-|
|-9--9--9--9--9--9--9--9--|-9--9--9--9--9--9--9--9--|
|-------------------------|-------------------------|

|-------------------------|-------------------------|
|-------------------------|-------------------------|
|-------13----11----------|-------13----11----------|
|-11-11-13----11----11-11-|-11-11-13----11----11-11-|
|-11-11-11----9-----11-11-|-11-11-11----9-----11-11-|
|-9--9--------------9--9--|-9--9--------------9--9--|

|-----------------|-----------------|---------------|
|-----------------|-----------------|---------------|
|-----------------|-----------------|---------------|
|-9-9-9-9-9-9-9-9-|-9-9-9-9-9-9-9-9-|-11~-----------|
|-9-9-9-9-9-9-9-9-|-9-9-9-9-9-9-9-9-|-11~-----------|
|-7-7-7-7-7-7-7-7-|-7-7-7-7-7-7-7-7-|-9~------------|

Ending
|-5-5-5-5-5-5-5-5-|-2-2-2-2-4-4-4-4-|-4-4-5-5-5-x-5-x-|-5---7---5-5-----|
|-5-5-5-5-7-7-7-7-|-3-3-3-3-5-5-5-5-|-5-5-7-7-5-x-5-x-|-5---7---5-5-----|
|-6-6-6-6-7-7-7-7-|-2-2-2-2-4-4-4-4-|-4-4-7-7-6-x-6-x-|-6---8---6-6-----|
|-----------------|-----------------|-----------------|-----------------|
|-----------------|-----------------|-----------------|-----------------|
|-----------------|-----------------|-----------------|-----------------|

comments
We did not receive enough feedback on this tab! Please rate:
print report bad tab
1 2 3 4 5
I want to post or [tab]
guest
You may want to rate the tab now too:
select rating
Please do not post tabs as comments. Select "correction" instead!