Oops, an error
Loading. Please wait.

Martian Girl Tab

version 1
version 1

Whole song

Interactive

2,007 views 3 this week
no commentswrite comment
1 2 3 4 5
accurate
x 3
add to favorites
launch autoscroll
font size
0
reset
how to read this tab
guitar tuner
Tab Pro tools
  • play this tab
  • loop segment
  • change instrument
  • show fretboard
  • metronome
×
Best way to learn
"Martian Girl"
Autoscroll
slow
fast
+/-
esc
set tempo
stop
Difficulty
novice
Martian Girl - The Aquabats
The Return of The Aquabats (1996)
Tabbed by Alex

INTRO:
 pm-------¬
e|-----------|--------------------|
B|-----------|--------------------|
G|-----------|--------------------|
D|-----------|-------------777777-|
A|-55555555--|-5---5---5---555555-|
E|-33333333--|-3---3---3----------|

MAIN: ska/upstrokes (you know the drill)
e|--x-3-x-3-x-3-x-3--------x-5-x-5-x-5-x-5--|
B|--x-3-x-3-x-3-x-3--------x-7-x-7-x-7-x-7--|
G|--x-4-x-4-x-4-x-4--(x3)--x-7-x-7-x-7-x-7--|
D|--x-5-x-5-x-5-x-5-------------------------|  all x3
A|------------------------------------------|
E|------------------------------------------|

And if you want it, here' the horn line for the last above section:
e|----787---7887---787--10-10-10-12-10-12-10-|
B|--8-----8------8---------------------------|  x2

e|----787---7887---787--10-10-10-8p7---------|
B|--8-----8------8-------------------10-(8)--|
(That must look sorta confusing, but if you've heard the track, it should make sense)

VERSE:
e|--x-3-x-3-x-3-x-3-x-5-x-5-x-5-x-5-x-3-x-3-x-3-x-3-x-3-x-3-x-3-x-3--|
B|--x-3-x-3-x-3-x-3-x-7-x-7-x-7-x-7-x-5-x-5-x-5-x-5-x-5-x-5-x-5-x-5--|
G|--x-4-x-4-x-4-x-4-x-7-x-7-x-7-x-7-x-5-x-5-x-5-x-5-x-5-x-5-x-5-x-5--|
D|--x-5-x-5-x-5-x-5--------------------------------------------------|
A|-------------------------------------------------------------------|
E|-------------------------------------------------------------------|

LINK:

e|--------------------------------|
B|--------------------------------|
G|--------------------------------|
D|--------------------55555555-7--|
A|--77777777-77777777-33333333-5--|
E|--55555555-55555555-------------|

CHORUS: (same as verse)
e|--x-3-x-3-x-3-x-3-x-5-x-5-x-5-x-5-x-3-x-3-x-3-x-3-x-3-x-3-x-3-x-3--|
B|--x-3-x-3-x-3-x-3-x-7-x-7-x-7-x-7-x-5-x-5-x-5-x-5-x-5-x-5-x-5-x-5--|
G|--x-4-x-4-x-4-x-4-x-7-x-7-x-7-x-7-x-5-x-5-x-5-x-5-x-5-x-5-x-5-x-5--|
D|--x-5-x-5-x-5-x-5--------------------------------------------------|
A|-------------------------------------------------------------------|
E|-------------------------------------------------------------------|

MAIN (only repeated twice, not four times)

VERSE

LINK

CHORUS

MIDDLE 8                                             pm-------------¬
e|--3--------5----3--|--3----5----3----3--|--3----5------------------------|
B|--3--------7----5--|--3----7----5----5--|--3----7------------------------|
G|--4--------7----5--|--4----7----5----5--|--4----7--5555555555555555------|
D|--5----------------|--5-----------------|--5-------5555555555555555------|
A|-------------------|--------------(x5)--|----------3333333333333333------|
E|-------------------|--------------------|--------------------------------|

LINK

CHORUS

INTRO % MAIN 

LINK

CHORUS

end on G e|--3--|
         B|--3--|
         G|--4--|
         D|--5--|
         A|--5--|
         E|--3--|
comments
We did not receive enough feedback on this tab! Please rate:
print report bad tab
1 2 3 4 5
I want to post or [tab]
guest
You may want to rate the tab now too:
select rating
Please do not post tabs as comments. Select "correction" instead!