Oops, an error
Loading. Please wait.

Red Sweater Tab

version 1
version 1

Whole song

4,169 views 1 this week
2 commentsread comments
1 2 3 4 5
excellent!
x 4
add to favorites
launch autoscroll
font size
0
reset
how to read this tab
guitar tuner
Tab Pro tools
  • play this tab
  • loop segment
  • change instrument
  • show fretboard
  • metronome
Autoscroll
slow
fast
+/-
esc
set tempo
stop
Contributor
Difficulty
Artist: The Aquabats
Song: Red Sweater
Album: The Fury of the Aquabats

Chords: A, c#m, D, E (Verse and Chorus) 

Intro (Chords are Right, Not Sure About Notes)
 A             c#m          D            E
E---0-------------------------2-------------------|
B-----2----------5--------------3-----------------|
G-------2—x2-------6---x2---------2-x2-----1------|
D-2------------------6------0----------------2----|
A--------------4-------------------------------2--|
E----------------------------------------0--------|

Horns Enter
  A                   c#m               D                 A
E-x-5-x-5-x-5-x-5-x---4-x-4-x-4-x-4-x---2-x-2-x-2-x-2-x---5-x-5-x-5-x-5--|
B-x-5-x-5-x-5-x-5-x---5-x-5-x-5-x-5-x---3-x-3-x-3-x-3-x---5-x-5-x-5-x-5--|
G-x-6-x-6-x-6-x-6-x---6-x-6-x-6-x-6-x---2-x-2-x-2-x-2-x---6-x-6-x-6-x-6--|
D------------------------------------------------------------------------|
A------------------------------------------------------------------------|
E------------------------------------------------------------------------|

Horn Part
E---------------------------------------------|
B---------------------------------------------|
G------9-----------6--------------6-7--6------|
D-7-------7----6------6--4-----7----------9---|
A---------------------------------------------|
E---------------------------------------------|

Verse, Chorus, and Horn Solo Chords
  A                   c#m               D                 E                    
E-x-5-x-5-x-5-x-5-x---4-x-4-x-4-x-4-x---2-x-2-x-2-x-2-x---4-x-4-x-4-x-4--|
B-x-5-x-5-x-5-x-5-x---5-x-5-x-5-x-5-x---3-x-3-x-3-x-3-x---5-x-5-x-5-x-5--|
G-x-6-x-6-x-6-x-6-x---6-x-6-x-6-x-6-x---2-x-2-x-2-x-2-x---4-x-4-x-4-x-4--|
D------------------------------------------------------------------------|
A------------------------------------------------------------------------|
E------------------------------------------------------------------------|

Bridge
   G5   A5   G5   A5   G5   A5   E5
E-------------------------------------------|
B-------------------------------------------|
G-------------------------------999999999---|
D-5555-7777-5555-7777-5555-7777-999999999---|
A-5555-7777-5555-7777-5555-7777-777777777---|
E-3333-5555-3333-5555-3333-5555-------------|

Repeat Intro 
   A        c#m      D        E
E--0-0-0-0-----------2-2-2-2-------------|
B--2-2-2-2--5-5-5-5--3-3-3-3--0-0-0-0----|
G--2-2-2-2--6-6-6-6--2-2-2-2--1-1-1-1----|
D--2-2-2-2--6-6-6-6--0-0-0-0--2-2-2-2----|
A--0-0-0-0--4-4-4-4-----------2-2-2-2----|
E-----------------------------0-0-0-0----|
comments
print report bad tab
2 comments total.
0 reply
athsmador wrote on March 20 2007, 12:49 am

whoa omg fat kid actually makes a tab that isnt
A:copied out of one of my books or
B:someone elses tab copied into a powertab



what a BAMF

0 reply
BeRaD wrote on December 30 2010, 06:07 am

Dude, dare I say this tab is "Super Rad" ? :P

I want to post or [tab]
guest
You may want to rate the tab now too:
select rating
Please do not post tabs as comments. Select "correction" instead!