Oops, an error
Loading. Please wait.

Fools Gold Tab

46 views 6 this week
no commentswrite comment
1 2 3 4 5
3 more votes to show rating
add to favorites
launch autoscroll
font size
0
reset
how to read this tab
guitar tuner
Autoscroll
slow
fast
+/-
esc
set tempo
stop
Help us to improve Ultimate-Guitar.com Take our survey!
×
Author
Difficulty
intermediate
[Intro]
e|---------------------------------------6-----------------------------------|
B|--11-8~----6-8-6---------------------6---8-----6-8-6-----------------------|
G|-----------------7---------------5h7-----------------7---------------------|
D|-------------------8-----------8-----------------------8-------------------|
A|---------------------------------------------------------------------------|
E|---------------------------------------------------------------------------|

e|---------------------------------------------------------------------------|
B|---------------------------------------------------------------------------|
G|---------------------------------------------------------------------------|
D|--5-5--3-5-3---------------5-5---3-5-3-------------------------------------|
A|-------------5-------------------------5-----------------------------------|
E|---------------6-------------------------6---------------------------------|

[Verse]
e|---------------------------------------------------------------------------|
B|---------------------------------------------------------------------------|
G|---------------------------------------------------------------------------|
D|--5-5--3-5-3---------------5-5---3-5-3-------------------------------------|
A|-------------5-------------------------5-----------------------------------|
E|---------------6-------------------------6---------------------------------|

e|---------------------------------------------------------------------------|
B|---------------------------------------------------------------------------|
G|---------------------------------------------------------------------------|
D|--5-5--3-5-3---------------5-5---3-5-3-------------------------------------|
A|-------------5-------------------------5-----------------------------------|
E|---------------6-------------------------6---------------------------------|

[Chorus]
  You're so pale        and so stale         Everything you do is for
e|---------------------------------------------------------------------------|
B|---------------------------------------------------------------------------|
G|---------------------------------------------------------------------------|
D|---------------------------------------------------------------------------|
A|---------------------------------------------------------------------------|
E|----------8--8--10-8-6-3-6---8--8--10-8-6-3-6------------------------------|
     sale      why should we care
e|---------------------------------------------------------------------------|
B|---------------------------------------------------------------------------|
G|---------------------------------------------------------------------------|
D|---8--7----5---3-5-3-----------5-5--3-5-3----------------------------------|
A|---8--7----5---------5--------------------5--------------------------------|
E|---6--5----3-----------6--------------------6------------------------------|

[Verse]
e|---------------------------------------------------------------------------|
B|---------------------------------------------------------------------------|
G|---------------------------------------------------------------------------|
D|--5-5--3-5-3---------------5-5---3-5-3-------------------------------------|
A|-------------5-------------------------5-----------------------------------|
E|---------------6-------------------------6---------------------------------|

e|---------------------------------------------------------------------------|
B|---------------------------------------------------------------------------|
G|---------------------------------------------------------------------------|
D|--5-5--3-5-3---------------5-5---3-5-3-------------------------------------|
A|-------------5-------------------------5-----------------------------------|
E|---------------6-------------------------6---------------------------------|

  You're so pale        and so stale         Everything you do is for
e|---------------------------------------------------------------------------|
B|---------------------------------------------------------------------------|
G|---------------------------------------------------------------------------|
D|---------------------------------------------------------------------------|
A|---------------------------------------------------------------------------|
E|----------8--8--10-8-6-3-6---8--8--10-8-6-3-6------------------------------|
     sale      why should we care
e|---------------------------------------------------------------------------|
B|---------------------------------------------------------------------------|
G|---------------------------------------------------------------------------|
D|---8--7----5---3-5-3-----------5-5--3-5-3----------------------------------|
A|---8--7----5---------5--------------------5--------------------------------|
E|---6--5----3-----------6--------------------6------------------------------|

[Bridge]
   It's the end of the line    You're wasting my time
e|---------------------------------------------------------------------------|
B|---------------------------------------------------------------------------|
G|---------------------------------------------------------------------------|
D|---------------------------------------------------------------------------|
A|---------------------------------------------------------------------------|
E|----------8-------------------------10-------------------------------------|
    Committing a crime
e|---------------------------------------------------------------------------|
B|---------------------------------------------------------------------------|
G|---------------------------------------------------------------------------|
D|---------------------------------------------------------------------------|
A|----------------------------------------------5-5-5-5-5-5-5-5-5-5-5-5------|
E|--8--------------------------6--5-----3------------------------------------|

[Solo]
e|---------------------------------------------------------------------------|
B|---------------------------------------------------------------------------|
G|-----------------------------------5---------------------------------------|
D|-----3-5-7-----3-5-7-5-----3-5-7-----7-5-3---------------------------------|
A|---5---------5-----------5-----------------5-3-5---------------------------|
E|---------------------------------------------------------------------------|

e|------------------------------------8--------------------------------------|
B|-----6-8-10-----6-8-10-8----6-8-10----10-8-6-------------------------------|
G|---7----------7-----------7------------------7-5-7-------------------------|
D|---------------------------------------------------------------------------|
A|---------------------------------------------------------------------------|
E|---------------------------------------------------------------------------|

e|---------------------------------------------------------------------------|
B|--8b10-pb10N-6-8-6-----6-8-8b10br8--6-8-6----------------------------------|
G|--------------------/7---------------------7-5-7---------------------------|
D|---------------------------------------------------------------------------|
A|---------------------------------------------------------------------------|
E|---------------------------------------------------------------------------|

e|------------8----------------8---------------------------------------------|
B|-----6-8b10---pb10br8-6-8b10---8b10br8------6------------------------------|
G|---7------------------------------------5-7---7----------------------------|
D|---------------------------------------------------------------------------|
A|---------------------------------------------------------------------------|
E|---------------------------------------------------------------------------|

e|--8b10---------------------------------------------------------------------|
B|-----------8b10----6b8---8/10-8--------------------------------------------|
G|--------------------------------7------------------------------------------|
D|---------------------------------------------------------------------------|
A|---------------------------------------------------------------------------|
E|---------------------------------------------------------------------------|

e|--10b12-pb12br10--------------pb12br10-8-7---------------------------------|
B|-------------------10--8--------------------8b10---------------------------|
G|---------------------------------------------------------------------------|
D|---------------------------------------------------------------------------|
A|---------------------------------------------------------------------------|
E|---------------------------------------------------------------------------|

[Outro]
e|---------------------------------------6-----------------------------------|
B|--11-8~----6-8-6---------------------6---8-----6-8-6-----------------------|
G|-----------------7---------------5h7-----------------7---------------------|
D|-------------------8-----------8-----------------------8-------------------|
A|---------------------------------------------------------------------------|
E|---------------------------------------------------------------------------|

e|---------------------------------------------------------------------------|
B|---------------------------------------------------------------------------|
G|---------------------------------------------------------------------------|
D|--5-5--3-5-3---------------5-5---3-5-3-------------------------------------|
A|-------------5-------------------------5-----------------------------------|
E|---------------6-------------------------6---------------------------------|

e|---------------------------------------------------------------------------|
B|---------------------------------------------------------------------------|
G|---------------------------------------------------------------------------|
D|--5-5--3-5-3---------------5-5---3-5-3-------------------------------------|
A|-------------5-------------------------5-----------------------------------|
E|---------------6-------------------------6---------------------------------|

   It's the end of the line    You're wasting my time
e|---------------------------------------------------------------------------|
B|---------------------------------------------------------------------------|
G|---------------------------------------------------------------------------|
D|---------------------------------------------------------------------------|
A|---------------------------------------------------------------------------|
E|----------8-------------------------10-------------------------------------|
    Committing a crime        It's time to press rewind
e|---------------------------------------------------------------------------|
B|---------------------------------------------------------------------------|
G|---------------------------------------------------------------------------|
D|----------------------------------------------8----------------------------|
A|----------------------------------------------8----------------------------|
E|--8--------------------------6---5---3---1----6----------------------------|


************************************

| ~   Vibrato
| h   Hammer-on
| b   Bend
| br  Bend release
| pb  Pre-bend
| /   Slide up

************************************
Suggest correction
Give kudos to tab author, rate the tab!
1 2 3 4 5
comments
print report bad tab
guest
You may want to rate the tab now too:
select rating
Wanna post a correction for this tab? Suggest correction