Oops, an error
Loading. Please wait.

So Lets Go Nowhere bass

1,976 views 3 this week
1 commentread comment
1 2 3 4 5
2 more votes to show rating
add to favorites
×
Save as Personal and add changes to this tab that will be seen only by you. Learn more ›
×
You can save this tab as Personal to edit and correct it or add notes. All changes will be seen only by you. Learn more »
launch autoscroll
font size
0
reset
guitar tuner
edit
Autoscroll
slow
fast
+/-
esc
set tempo
stop
Author
Difficulty
p=pull off
h=hammer on
~=let ring
+=natural harmonic
.=palm mute

Intro/Chorus
g|----------------------------------
d|-22-222-22-2----------------------
a|------------42-00-000-00-00-22-44-
e|--------------4-------------------

Variation
g|-------------1h2p1--
d|-22-222-22-22-----2- at the beginning
a|--------------------
e|--------------------

Verse(very fast)
g|----------
d|----------
a|-----0234-
e|-0234-----   
|-lead into-|

g|------------------------------------
d|------012---1-121-------012---1-----
a|-00404----22-2---2-00404----22-2----
e|--------------------------------0234

Pre-Chrous
g|----------------------------------------------------------
d|----------------------22-222-----------------------2222222
a|-00-000-44-444-22-222-------00-000-44-444-22--------------
e|----------------------------------------------------------

Bridge(slowly)
g|-----------------
d|-----------------
a|-000000-022222242
e|-------4---------

g|----------------------------------
d|----------------------------------
a|------------------2200220022442200
e|-5544554455445544-----------------

then after the part where its just jeff singing
g|-----------------------222222222
d|-2--2--2--2--222----------------
a|-----------------00-000---------
e|--------------------------------

            
            
Suggest correction
Creating personal tab
Creating personal tab
You can edit any tab online and save it as your Personal.

You can edit, replace or remove any tab part or add personal notes – all changes will be seen only by you.

Personal tabs can be accessed anytime from any device, even offline.
Learn more »
Give kudos to tab author, rate the tab!
1 2 3 4 5
comments
print report bad tab
1 comment total.
0 reply
elpoptart 168 Jan 23, 2011 03:52 PM

great tab!

guest
You may want to rate the tab now too:
select rating
Wanna post a correction for this tab? Suggest correction