Oops, an error
Loading. Please wait.

Rebuilding Who We Are tab

215 views 1 this week
1 commentread comment
1 2 3 4 5
1 last vote to show rating
add to favorites
×
Save as Personal and add changes to this tab that will be seen only by you. Learn more ›
×
You can save this tab as Personal to edit and correct it or add notes. All changes will be seen only by you. Learn more »
launch autoscroll
font size
0
reset
how to read this tab
guitar tuner
edit
Autoscroll
slow
fast
+/-
esc
set tempo
stop
-------------------------------------------------------------------------------------|
----------------Rebuilding Who We Are - The Artist Must Draw-------------------------|
Tabbed by:Justin Melchor
Email:J.melchor17@gmail.com

Tuning:Drop C

Lead Guitar- Fade In Intro (0:00-0:08)
C|-----------------------------------------------------------------------------|
G|-------8-5-8------------8-5-8------------------------------------------------|
C|---8-7-------7-8----8-7-------7-8--------------------------------------------|
F|10---------------10----------------------------------------------------------|
A|-----------------------------------------------------------------------------|
D|-----------------------------------------------------------------------------|

C|-----------------------------------------------------------------------------|
G|------7-4-7------------7-4-7-------------------------------------------------|
C|--7-5-------5-7----7-5-------5-7---------------------------------------------|
F|9----------------9-----------------------------------------------------------|
A|-----------------------------------------------------------------------------|
D|-----------------------------------------------------------------------------|

C|-----------------------------------------------------------------------------|
G|-------8-5-8------------8-5-8------------------------------------------------|
C|---8-7-------7-8----8-7-------7-8--------------------------------------------|
F|10---------------10----------------------------------------------------------|
A|-----------------------------------------------------------------------------|
D|-----------------------------------------------------------------------------|

C|---------------------------------------------------------------------------|
G|------7-4-7----------------------------------------------------------------|
C|--7-5-------5-7------------------------------------------------------------|
F|9----------------9---------------------------------------------------------|
A|---------------------------------------------------------------------------|
D|---------------------------------------------------------------------------|

Lead Guitar-Intro/Verse(0:09-0:32)

C|-----------------------------------------------------------------------------|
G|-------8-5-8------------8-5-8------------------------------------------------|
C|---8-7-------7-8----8-7-------7-8--------------------------------------------|
F|10---------------10----------------------------------------------------------|
A|-----------------------------------------------------------------------------|
D|-----------------------------------------------------------------------------|

C|-----------------------------------------------------------------------------|
G|------7-4-7------------7-4-7-------------------------------------------------|
C|--7-5-------5-7----7-5-------5-7---------------------------------------------|
F|9----------------9-----------------------------------------------------------|
A|-----------------------------------------------------------------------------|
D|-----------------------------------------------------------------------------|

C|-----------------------------------------------------------------------------|
G|-------8-5-8------------8-5-8------------------------------------------------|
C|---8-7-------7-8----8-7-------7-8--------------------------------------------|
F|10---------------10----------------------------------------------------------|
A|-----------------------------------------------------------------------------|
D|-----------------------------------------------------------------------------|

C|-----------------------------------------------------------------------------|
G|------7-4-7------------7-4~--------------------------------------------------|
C|--7-5-------5-7----7-5-------------------------------------------------------|
F|9----------------9-----------------------------------------------------------|
A|-----------------------------------------------------------------------------|
D|-----------------------------------------------------------------------------|

C|-----------------------------------------------------------------------------|
G|---------13-12-13----------------13-12-13------------------------------------|
C|---15-12----------12-15----15-12----------12-15------------------------------|
F|14-----------------------14--------------------------------------------------|
A|-----------------------------------------------------------------------------|
D|-----------------------------------------------------------------------------|

C|-----------------------------------------------------------------------------|
G|--------12-10-12----------------12-10-12-------------------------------------|
C|---14-11---------11-14----14-11----------11-14-------------------------------|
F|12----------------------12---------------------------------------------------|
A|-----------------------------------------------------------------------------|
D|-----------------------------------------------------------------------------|

C|-----------------------------------------------------------------------------|
G|---------13-12-13----------------13-12-13------------------------------------|
C|---15-12----------12-15----15-12----------12-15------------------------------|
F|14-----------------------14--------------------------------------------------|
A|-----------------------------------------------------------------------------|
D|-----------------------------------------------------------------------------|

C|-----------------------------------------------------------------------------|
G|--------12-10-12----------------12-10-12-------------------------------------|
C|---14-11---------11-14----14-11----------11-14-------------------------------|
F|12----------------------12---------------------------------------------------|
A|-----------------------------------------------------------------------------|
D|-----------------------------------------------------------------------------|

Lead Guitar-Verse(0:32-0:53)
         *******   *        *        *        *  *        *******
C|0~-000000-0-0~-0-0~-0-0~ 0-0-0~-000000---------------------------------------|
G|0~-000000---0~---0~---0~-----0~-000000----------12-10------------------------|
C|0~-000000---0~---0~---0~-----0~-000000----14-11-------11-14------------------|
F|-----------------------------------------12----------------------------------|
A|-----------------------------------------------------------------------------|
D|-----------------------------------------------------------------------------|
         *******   *        *        *        *  *        *******
C|0~-000000-0~-0-0~-0-0~ 0-0-0~-000000-----------------------------------------|
G|0~-000000---0~---0~---0~-----0~-000000-10-12---------------------------------|
C|0~-000000---0~---0~---0~-----0~-000000-------11-14-----14----14--------------|
F|------------------------------------------------------12-----12--------------|
A|-----------------------------------------------------------------------------|
D|-----------------------------------------------------------------------------|
         ************************************       ***************
C|0~-0000000000000000000000000000-0~000000000000---------------------------------------------------|
G|0~-0000000000000000000000000000-0~000000000000--------------------12-12-10-10-12-12--------------|
C|0~-0000000000000000000000000000-0~000000000000-------14-14-11-11--------------------11-11-14-14--|
F|---------------------------------------------------12-12-----------------------------------------|
A|-------------------------------------------------------------------------------------------------|
D|-------------------------------------------------------------------------------------------------|
         ************************************       ***************
C|0~-0000000000000000000000000000-0~000000000000----------------------------------------------------|
G|0~-0000000000000000000000000000-0~000000000000--10-10-12-12---------------------------------------|
C|0~-0000000000000000000000000000-0~000000000000---------------11-11-14-14-------14-14-------14-14--|
F|------------------------------------------------------------------------------12-12-------12-12---|
A|--------------------------------------------------------------------------------------------------|
D|--------------------------------------------------------------------------------------------------|

Lead Guitar-Chorus(0:53-1:14)

C|-------------------------------------------8~-888888-8~-888888-8~-888888-8~-888888--|
G|5~-555555-5~-555555-8~-888888-8~-888888-7~-777777-7~-777777-7~-777777-7~-777777-----|
C|------------------------------------------------------------------------------------|
F|9~-999999-9~-999999-9~-999999-9~-999999-9~-999999-10~-101010-9~-999999-10~-101010---|
A|------------------------------------------------------------------------------------|
D|------------------------------------------------------------------------------------|

C|-------------------------------------------8~-888888-8~-888888-8~-888888-8~-888888--|
G|5~-555555-5~-555555-8~-888888-8~-888888-7~-777777-7~-777777-7~-777777-7~-777777-----|
C|------------------------------------------------------------------------------------|
F|9~-999999-9~-999999-9~-999999-9~-999999-9~-999999-10~-101010-9~-999999-10~-101010---|
A|------------------------------------------------------------------------------------|
D|------------------------------------------------------------------------------------|

Lead Guitar-Transition(1:14-1:16)

C|-----------------------------------------------------------------------------|
G|-------8-5-8------------8-5-8------------------------------------------------|
C|---8-7-------7-8----8-7-------7-8--------------------------------------------|
F|10---------------10----------------------------------------------------------|
A|-----------------------------------------------------------------------------|
D|-----------------------------------------------------------------------------|

Lead Guitar-2nd Verse(1:16-1:38)

C|-----------------------------------------------------------------------------|
G|-------8-5-8------------8-5-8------------------------------------------------|
C|---8-7-------7-8----8-7-------7-8--------------------------------------------|
F|10---------------10----------------------------------------------------------|
A|-----------------------------------------------------------------------------|
D|-----------------------------------------------------------------------------|

C|-----------------------------------------------------------------------------|
G|------7-4-7------------7-4-7-------------------------------------------------|
C|--7-5-------5-7----7-5-------5-7---------------------------------------------|
F|9----------------9-----------------------------------------------------------|
A|-----------------------------------------------------------------------------|
D|-----------------------------------------------------------------------------|

C|-----------------------------------------------------------------------------|
G|-------8-5-8------------8-5-8------------------------------------------------|
C|---8-7-------7-8----8-7-------7-8--------------------------------------------|
F|10---------------10----------------------------------------------------------|
A|-----------------------------------------------------------------------------|
D|-----------------------------------------------------------------------------|
                                                  +
C|-----------------------------------------------------------------------------|
G|------7-4-7------------7-5---------------------------------------------------|
C|--7-5-------5-7----7-5-------------------------------------------------------|
F|9----------------9-----------------------------------------------------------|
A|-----------------------------------------------------------------------------|
D|-----------------------------------------------------------------------------|

C|-----------------------------------------------------------------------------|
G|---------13-12-13----------------13-12-13------------------------------------|
C|---15-12----------12-15----15-12----------12-15------------------------------|
F|14-----------------------14--------------------------------------------------|
A|-----------------------------------------------------------------------------|
D|-----------------------------------------------------------------------------|

C|-----------------------------------------------------------------------------|
G|--------12-10-12----------------12-10-12-------------------------------------|
C|---14-11---------11-14----14-11----------11-14-------------------------------|
F|12----------------------12---------------------------------------------------|
A|-----------------------------------------------------------------------------|
D|-----------------------------------------------------------------------------|

C|-----------------------------------------------------------------------------|
G|---------13-12-13----------------13-12-13------------------------------------|
C|---15-12----------12-15----15-12----------12-15------------------------------|
F|14-----------------------14--------------------------------------------------|
A|-----------------------------------------------------------------------------|
D|-----------------------------------------------------------------------------|

C|-----------------------------------------------------------------------------|
G|--------12-10-12----------------12-10-12-------------------------------------|
C|---14-11---------11-14----14-11----------11-14-------------------------------|
F|12----------------------12---------------------------------------------------|
A|-----------------------------------------------------------------------------|
D|-----------------------------------------------------------------------------|

Lead Guitar-Pre Chorus(1:38-1:48)

C|-------------------------------------------8---------8------------8----------8------------|
G|5-5---5---5-5----5----8-8---8---8-8---8-----7---7-----7----7-------7----7-----7-----7-----|
C|------------------------------------------------------------------------------------------|
F|----9---9------9----9------9---9-----9---9-----9---9-----10---10------9---9------10---10--|
A|------------------------------------------------------------------------------------------|
D|------------------------------------------------------------------------------------------|

Lead Guitar-2nd Chorus(1:48-2:10)

C|-------------------------------------------8~-888888-8~-888888-8~-888888-8~-888888--|
G|5~-555555-5~-555555-8~-888888-8~-888888-7~-777777-7~-777777-7~-777777-7~-777777-----|
C|------------------------------------------------------------------------------------|
F|9~-999999-9~-999999-9~-999999-9~-999999-9~-999999-10~-101010-9~-999999-10~-101010---|
A|------------------------------------------------------------------------------------|
D|------------------------------------------------------------------------------------|

C|-------------------------------------------8~-888888-8~-888888-8~-888888-8~-888888--|
G|5~-555555-5~-555555-8~-888888-8~-888888-7~-777777-7~-777777-7~-777777-7~-777777-----|
C|------------------------------------------------------------------------------------|
F|9~-999999-9~-999999-9~-999999-9~-999999-9~-999999-10~-101010-9~-999999-10~-101010---|
A|------------------------------------------------------------------------------------|
D|------------------------------------------------------------------------------------|

Lead Guitar-Solo(2:10-2:32)
C|-----------------------------------------------------------------------------|
G|-----------------------------------------------------------------------------|
C|0-12-----------------12-0-12------------------12-----------------------------|
F|------10-14----14-10---------10-14-----14-10---------------------------------|
A|------------13----------------------13---------------------------------------|
D|-----------------------------------------------------------------------------|

C|-----------------------------------------------------------------------------|
G|-----------------------------------------------------------------------------|
C|0-12-----------------12-0-12------------------12-----------------------------|
F|------10-14----14-10---------10-14-----14-10---------------------------------|
A|------------13----------------------13---------------------------------------|
D|-----------------------------------------------------------------------------|

C|-----------------------------------------------------------------------------|
G|-----------------------------------------------------------------------------|
C|0-12-----------------12-0-12------------------12-----------------------------|
F|------10-14----14-10---------10-14-----14-10---------------------------------|
A|------------13----------------------13---------------------------------------|
D|-----------------------------------------------------------------------------|

C|-----------------------------------------------------------------------------|
G|-----------------------------------------------------------------------------|
C|0-12-----------------12-0-12------------------12-----------------------------|
F|------10-14----14-10---------10-14-----14-10---------------------------------|
A|------------13----------------------13---------------------------------------|
D|-----------------------------------------------------------------------------|

C|-----------------------------------------------------------------------------|
G|-----------------------------------------------------------------------------|
C|0-12-----------------12-0-12------------------12-----------------------------|
F|------10-14----14-10---------10-14-----14-10---------------------------------|
A|------------13----------------------13---------------------------------------|
D|-----------------------------------------------------------------------------|

C|-----------------------------------------------------------------------------|
G|-----------------------------------------------------------------------------|
C|0-12-----------------12-0-12------------------12-----------------------------|
F|------10-14----14-10---------10-14-----14-10---------------------------------|
A|------------13----------------------13---------------------------------------|
D|-----------------------------------------------------------------------------|

C|-----------------------------------------------------------------------------|
G|-----------------------------------------------------------------------------|
C|0-12-----------------12-0-12------------------12-----------------------------|
F|------10-14----14-10---------10-14-----14-10---------------------------------|
A|------------13----------------------13---------------------------------------|
D|-----------------------------------------------------------------------------|

C|-----------------------------------------------------------------------------|
G|-----------------------------------------------------------------------------|
C|0-12-----------------12-0-12------------------12-----------------------------|
F|------10-14----14-10---------10-14-----14-10---------------------------------|
A|------------13----------------------13---------------------------------------|
D|-----------------------------------------------------------------------------|

Lead Guitar-Build up(2:32-2:41)
                                                                        *  *      ***********
C|0~----------------0~-----------------1-1-0~--------000000000-----------------|
G|0~----------------0~-----------------1-1-0~--------000000000-----------------|
C|0~----------------0~-----------------1-1-0~--------000000000-----------------|
F|-----------------------------------------------------------------------------|
A|-----------------------------------------------------------------------------|
D|-----------------------------------------------------------------------------|

Lead Guitar- Break Down(2:42-3:03)

C|-----------------------------------------------------------------------------|
G|-------8-5-8------------8-5-8------------------------------------------------|
C|---8-7-------7-8----8-7-------7-8--------------------------------------------|
F|10---------------10----------------------------------------------------------|
A|-----------------------------------------------------------------------------|
D|-----------------------------------------------------------------------------|

C|-----------------------------------------------------------------------------|
G|------7-4-7------------7-4-7-------------------------------------------------|
C|--7-5-------5-7----7-5-------5-7---------------------------------------------|
F|9----------------9-----------------------------------------------------------|
A|-----------------------------------------------------------------------------|
D|-----------------------------------------------------------------------------|

C|-----------------------------------------------------------------------------|
G|-------8-5-8------------8-5-8------------------------------------------------|
C|---8-7-------7-8----8-7-------7-8--------------------------------------------|
F|10---------------10----------------------------------------------------------|
A|-----------------------------------------------------------------------------|
D|-----------------------------------------------------------------------------|
                                                  +b
C|-----------------------------------------------------------------------------|
G|------7-4-7------------7-5---------------------------------------------------|
C|--7-5-------5-7----7-5-------------------------------------------------------|
F|9----------------9-----------------------------------------------------------|
A|-----------------------------------------------------------------------------|
D|-----------------------------------------------------------------------------|

C|-----------------------------------------------------------------------------|
G|---------13-12-13----------------13-12-13------------------------------------|
C|---15-12----------12-15----15-12----------12-15------------------------------|
F|14-----------------------14--------------------------------------------------|
A|-----------------------------------------------------------------------------|
D|-----------------------------------------------------------------------------|

C|-----------------------------------------------------------------------------|
G|--------12-10-12----------------12-10-12-------------------------------------|
C|---14-11---------11-14----14-11----------11-14-------------------------------|
F|12----------------------12---------------------------------------------------|
A|-----------------------------------------------------------------------------|
D|-----------------------------------------------------------------------------|

C|-----------------------------------------------------------------------------|
G|---------13-12-13----------------13-12-13------------------------------------|
C|---15-12----------12-15----15-12----------12-15------------------------------|
F|14-----------------------14--------------------------------------------------|
A|-----------------------------------------------------------------------------|
D|-----------------------------------------------------------------------------|

C|-----------------------------------------------------------------------------|
G|--------12-10-12----------------12-10-12-------------------------------------|
C|---14-11---------11-14----14-11----------11-14-------------------------------|
F|12----------------------12---------------------------------------------------|
A|-----------------------------------------------------------------------------|
D|-----------------------------------------------------------------------------|

Lead Guitar-Transition(3:03-3:06

C|-----------------------------------------------------------------------------|
G|-------8-5-8-----------------------------------------------------------------|
C|---8-7-------7-8-------------------------------------------------------------|
F|10---------------------------------------------------------------------------|
A|-----------------------------------------------------------------------------|
D|-----------------------------------------------------------------------------|

C|-----------------------------------------------------------------------------|
G|--------12-10-12-------------------------------------------------------------|
C|---14-11---------11-14-------------------------------------------------------|
F|12---------------------------------------------------------------------------|
A|-----------------------------------------------------------------------------|
D|-----------------------------------------------------------------------------|

Lead Guitar-Outro(3:06-3:24)

C|-----------------------------------------------------------------------------|
G|---------13-12-13----------------13-12-13------------------------------------|
C|---15-12----------12-15----15-12----------12-15------------------------------|
F|14-----------------------14--------------------------------------------------|
A|-----------------------------------------------------------------------------|
D|-----------------------------------------------------------------------------|

C|-----------------------------------------------------------------------------|
G|--------12-10-12----------------12-10-12-------------------------------------|
C|---14-11---------11-14----14-11----------11-14-------------------------------|
F|12----------------------12---------------------------------------------------|
A|-----------------------------------------------------------------------------|
D|-----------------------------------------------------------------------------|

C|-----------------------------------------------------------------------------|
G|---------13-12-13----------------13-12-13------------------------------------|
C|---15-12----------12-15----15-12----------12-15------------------------------|
F|14-----------------------14--------------------------------------------------|
A|-----------------------------------------------------------------------------|
D|-----------------------------------------------------------------------------|

C|-----------------------------------------------------------------------------|
G|--------12-10-12----------------12-10-12-------------------------------------|
C|---14-11---------11-14----14-11----------11-14-------------------------------|
F|12----------------------12---------------------------------------------------|
A|-----------------------------------------------------------------------------|
D|-----------------------------------------------------------------------------|

C|0~~~~~~~~~~~~--|
G|0~~~~~~~~~~~~--|
C|0~~~~~~~~~~~~--|
F|---------------|
A|---------------|
D|---------------|

http://www.facebook.com/TAMDband

************************************
| *   palm mute
| /   slide up
| \   slide down
| h   hammer-on
| p   pull-off
| ~   vibrato
| +   harmonic
| x   Mute note
| b   Bend
| pb  Pre-bend
| br  Bend release
| pbr Pre-bend release
| brb Bend release bend

************************************
Suggest correction
Creating personal tab
Creating personal tab
You can edit any tab online and save it as your Personal.

You can edit, replace or remove any tab part or add personal notes – all changes will be seen only by you.

Personal tabs can be accessed anytime from any device, even offline.
Learn more »
Give kudos to tab author, rate the tab!
1 2 3 4 5
comments
print report bad tab
1 comment total.
0 reply
willyyouarent 10 Jan 10, 2012 07:53 AM

Thanks dude :D

guest
You may want to rate the tab now too:
select rating
Wanna post a correction for this tab? Suggest correction