Oops, an error
Loading. Please wait.

Cherish bass

184 views 1 this week
no commentswrite comment
1 2 3 4 5
3 more votes to show rating
add to favorites
×
Save as Personal and add changes to this tab that will be seen only by you. Learn more ›
×
You can save this tab as Personal to edit and correct it or add notes. All changes will be seen only by you. Learn more »
launch autoscroll
font size
0
reset
guitar tuner
backing track
0:00
0:00
edit
Autoscroll
slow
fast
+/-
esc
set tempo
stop
Author
---------------------------------------------------------------------
                        Cherish - The Association
---------------------------------------------------------------------
Tabbed by: RagnaarMN
Tuning: Standard

Intro:
G|----------------|----------------|----------------|----------------|
D|----------------|1-----1-1---1---|----------------|1-----1-1---1---|
A|----------------|----------------|----------------|----------------|
E|1-----1-1---1---|----------------|1-----1-1---1---|----------------|

Verse:
G|----------------|----------------|----------------|----------------|
D|----------------|----------------|1-----1-1---0---|----------------|
A|----------------|----------------|----------------|3-----3-3-------|
E|1-----------1---|1---------------|----------------|----------------|

G|----------------|----------------|----------------|----------------|
D|----------------|----------------|1-----1-1---0---|----------------|
A|----------------|----------------|----------------|3-----3-3---3-1-|
E|1-----------1---|1---------------|----------------|----------------|

G|----------------|----------------|----------------|----------------|
D|----------------|----------------|----------------|----------------|
A|0-----0-0-------|1-----1-1-------|0-----0-0-------|1-----1-1-------|
E|----------------|----------------|----------------|----------------|

G|----------------|----------------|----------------|----------------|
D|----------------|----------------|----------------|----------------|
A|0-----0-0-------|1---0-----------|----------------|----------------|
E|----------------|--------3---1---|1---------------|1-----1-1-------|

G|----------------|----------------|
D|----------------|----------------|
A|0-----3-3---3---|0-----3-3---3---|
E|----------------|----------------|

Verse:
G|----------------|----------------|----------------|----------------|
D|----------------|----------------|1-----1-1---0---|----------------|
A|----------------|----------------|----------------|3-----3-3-------|
E|1-----------1---|1---------------|----------------|----------------|

G|----------------|----------------|----------------|----------------|
D|----------------|----------------|1-----1-1---0---|----------------|
A|----------------|----------------|----------------|3-----3-3---3-1-|
E|1-----------1---|1---------------|----------------|----------------|

G|----------------|----------------|----------------|----------------|
D|----------------|----------------|----------------|----------------|
A|0-----0-0-------|1-----1-1-------|0-----0-0-------|1-----1-1-------|
E|----------------|----------------|----------------|----------------|

G|----------------|----------------|----------------|----------------|
D|----------------|----------------|----------------|----------------|
A|0-----0-0-------|1---0-----------|----------------|----------------|
E|----------------|--------3---1---|1---------------|1-----1-1-------|

G|----------------|----------------|
D|----------------|----------------|
A|0-----3-3---3---|0-----3-3-------|
E|----------------|----------------|

Bridge:
G|----------------|----------------|----------------|----------------|
D|----------------|----------------|----------------|----------------|
A|----------------|3-----------3---|0-------0-------|----------------|
E|3-----------3---|----------------|----------------|0-----0-0-------|
  gin-ing          man              words            me

G|----------------|----------------|----------------|----------------|
D|----------------|3-----2-0-------|----------------|----------------|
A|3-----------3---|------------0---|1-----------0---|----------------|
E|----------------|----------------|----------------|3-----------1---|
  right            just             make you         make you

G|----------------|----------------|----------------|----------------|
D|1---------------|----------------|----------------|----------------|
A|----------------|3-----3-3---3---|3-3-3-----------|----------------|
E|----------------|----------------|----------------|1-----1-1-------|
  driving          mind                   Oh       I need       you'd   

G|----------------|----------------|----------------|----------------|
D|----------------|1-----1-1-------|0-----------0---|----------------|
A|----------------|----------------|----------------|1-----1-1-------|
E|0---------------|----------------|----------------|----------------|
  realize        I want             thousand    say  loved        all  

G|----------------|----------------|----------------|----------------|
D|----------------|0---------------|----------------|1-----1-1---0---|
A|3-----3-3-------|--------1-------|----------------|----------------|
E|----------------|----------------|3-------3-------|----------------|
  rest        all  wanted  touch    hands   gaze     eyes - - - - - -

G|----------------|----------------|----------------|
D|1-----1-1---0---|----------------|----------------|
A|----------------|3-----3-3---3---|3-----3-1-------|
E|----------------|----------------|------------3---|
  eyes - - - - - - eyes

Verse:
G|----------------|----------------|----------------|----------------|
D|----------------|----------------|1-----1-1---0---|----------------|
A|----------------|----------------|----------------|3-----3-3-------|
E|1-----------1---|1---------------|----------------|----------------|
  Cherish          use

G|----------------|----------------|----------------|----------------|
D|----------------|----------------|1-----1-1---0---|----------------|
A|----------------|----------------|----------------|3-----3-3---3-1-|
E|1-----------1---|1---------------|----------------|----------------|
  feeling          here                                          don't

G|----------------|----------------|----------------|----------------|
D|----------------|----------------|----------------|----------------|
A|0-----0-0-------|1-----1-1-------|0-----0-0-------|1-----1-1-------|
E|----------------|----------------|----------------|----------------|
  how              told             how              hold      You 

G|----------------|----------------|----------------|----------------|
D|----------------|----------------|1---------------|1-----1-1-------|
A|0-----0-0-------|1---0-----------|----------------|----------------|
E|----------------|--------3---1---|----------------|----------------|
  how              mould            cherish          I 

G|----------------|----------------|----------------|----------------|
D|----------------|----------------|----------------|----------------|
A|3-----3-3---3---|3-------0---1---|3-----3-3---3---|3-------0---1---|
E|----------------|----------------|----------------|----------------|
  you                      And I    do                       cherish  

G|----------------|----------------|----------------|----------------|
D|----------------|----------------|----------------|----------------|
A|3-----3-3---3---|3-------0---1---|3-----3-3---3---|3-------0---1---|
E|----------------|----------------|----------------|----------------|
  you                      And I    do                       cherish  

G|----------------|----------------|----------------|----------------|
D|----------------|----------------|----------------|----------------|
A|3-----3-3---3---|3---------------|3---------------|----------------|
E|----------------|----------------|----------------|1---------------|
  you                      Cherish  word

Sheet music may differ at the end of the bridge and the end of the 
song. I added bars there. These tabs should match the video. 
Suggestions about the fill at the end of the bridge are welcome.

======================================================================

            
            
Suggest correction
Creating personal tab
Creating personal tab
You can edit any tab online and save it as your Personal.

You can edit, replace or remove any tab part or add personal notes – all changes will be seen only by you.

Personal tabs can be accessed anytime from any device, even offline.
Learn more »
Give kudos to tab author, rate the tab!
1 2 3 4 5
comments
print report bad tab
guest
You may want to rate the tab now too:
select rating
Wanna post a correction for this tab? Suggest correction