Oops, an error
Loading. Please wait.

All Souls Day Bass Tab

1,170 views 1 this week
no commentswrite comment
1 2 3 4 5
please rate
add to favorites
launch autoscroll
font size
0
reset
guitar tuner
Tab Pro tools
  • play this tab
  • loop segment
  • change instrument
  • show fretboard
  • metronome
×
Best way to learn
"All Souls Day"
Autoscroll
slow
fast
+/-
esc
set tempo
stop
Contributor
This is the new demo by The Ataris called All Souls Day, it's available at 
www.myspace.com/theartaris

intro
G:----------------------------------------------------------------|
D:0-0-0-0-0-0-0-0-2-2-2-2-2-2-2-2-4-4-4-4-4-4-4-4-2-2-2-2-2-2-2-2-|
A:----------------------------------------------------------------|
E:----------------------------------------------------------------|

G:--------------------------------------------------------------------|
D:--------------------------------------------------------------------|
A:2-2-2-2-2-2-2-2-4-4-4-4-4-5-5-5-5-5-4-4-4-4-4-4-4-4-2-2-2-2-2-2-2-2-|
E:--------------------------------------------------------------------|
-
G:----------------------------------------------------------------------|
D:----------------------------------------------------------------------|
A:----------------------------------------------------------------------|
E:3-3-3-3-3-3-3-3-3-3-3-3-3-3-3-3-3-3-3-5-5-5-5-5-5-5-5-5-5-5-5-5-5-5-5-|

Verse
G:------------------------------------------------------------------------|
D:------------------------------------------------------------------------|
A:------------------------------------------------------------------------|
E:0-0-0-0-0-0-0-0-0-0-0-0-5-5-5-5-5-5-5-5-5-5-5-5-7-7-7-7-7-7-7-7-7-7-7-7-|

Chorus
G:--------------------------------------------------------------------------------|
----------------------------------------------------------------------------------|
A:--------------------------------------------------------------------------------|
E:0=0-0-0-0-0-0-0-0-0-3-3-3-3-3-3-3-3-3-3-5-5-5-5-5-5-5-5-5-5-7-7-7-7-7-7-7-7-7-7-|

Intro
Verse
Chorus

Breakdown thing
G:---------------------------------------------------------------|
D:---------------------------------------------------------------|
A:---------------------------------------------------------------|
E:0-0-0-0-0-0-0-0-5-5-5-5-5-5-5-5-7-7-7-7-7-7-7-0-0-0-0-0-0-0-0--|

Guitar and drum break

Chorus

Please enjoy!
comments
We did not receive enough feedback on this tab! Please rate:
print report bad tab
1 2 3 4 5
I want to post or [tab]
guest
You may want to rate the tab now too:
select rating
Please do not post tabs as comments. Select "correction" instead!