Oops, an error
Loading. Please wait.

Teenage Riot Tab

version 1
version 1

Whole song

Interactive

423 views 1 this week
no commentswrite comment
1 2 3 4 5
2 more votes to show rating
add to favorites
launch autoscroll
font size
0
reset
how to read this tab
guitar tuner
×
Best way to learn
"Teenage Riot"
Autoscroll
slow
fast
+/-
esc
set tempo
stop
Author
------------------------------------------------------------------------ 
                   TEENAGE RIOT - The Ataris 
------------------------------------------------------------------------- 
TABBED BY:  Rob (freeskier20@hotmail.com)

/ means slide 
p.m means palm mute 

Intro 

Guitar2 
e|---------------------------------------------| 
B|---------------------------------------------| 
G|-5-x8----------------------------------------| 
D|-5----2------7-7---/--5-5---/-3-x4--6-x5--5--| 
A|-3----2-*8---7-7--/---5-5--/--3-----6-----5--| 
E|------0------5-5-/----3-3-/---1-----4-----3--| 

Guitar1 
e|---------------------------------------------| 
B|--------------5-6-5-------3-5-3--------------| 
G|--------------------7-5----------------------| 
D|---------------------------------------------| 
A|---------------------------------------------| 
E|---------------------------------------------| 

Verse 

Guitar1+2 
e|--------------------------------------------------------------------> 
B|--------------------------------------------------------------------> 
G|-5-5-5-5-5-5-5-5--4-4-4-4-4-4-4-4-----------------------------------> 
D|-5-5-5-5-5-5-5-5--4-4-4-4-4-4-4-4--7-7-7-7-7-7-7-7--5-5-5-5-5-5-5-5-> 
A|-3-3-3-3-3-3-3-3--2-2-2-2-2-2-2-2--7-7-7-7-7-7-7-7--5-5-5-5-5-5-5-5-> 
E|-----------------------------------5-5-5-5-5-5-5-5--3-3-3-3-3-3-3-3-> 
pm................................................................... 

e|--------------------------------| 
B|--------------------------------| 
G|--------------------------------| 
D|-3-3-3-3-3-3-3-3---6-6-6-6-6--5-| 
A|-3-3-3-3-3-3-3-3---6-6-6-6-6--5-| 
E|-1-1-1-1-1-1-1-1---4-4-4-4-4--3-| 
.................. 

e|--------------------------------------------------------------------> 
B|--------------------------------------------------------------------> 
G|-5-5-5-5-5-5-5-5----------------------------------------------------> 
D|-5-5-5-5-5-5-5-5-------------------7-7-7-7-7-7-7-7--5-5-5-5-5-5-5-5-> 
A|-3-3-3-3-3-3-3-3--2-2-2-2-2-2-2-2--7-7-7-7-7-7-7-7--5-5-5-5-5-5-5-5-> 
E|------------------0-0-0-0-0-0-0-0--5-5-5-5-5-5-5-5--3-3-3-3-3-3-3-3-> 

e|--------------------------------| 
B|--------------------------------| 
G|--------------------------------| 
D|-3-3-3-3-3-3-3-3---6-6-6-6-6--5-| 
A|-3-3-3-3-3-3-3-3---6-6-6-6-6--5-| 
E|-1-1-1-1-1-1-1-1---4-4-4-4-4--3-| 

Pre-chorus 

Guitar1+2 
e|------------------------------------------------------------------------> 
B|------------------------------------------------------------------------> 
G|-------------------5-5-5-5---------------------------5-5-5-5-5-----5----> 
D|-2-2-2-2--3-3-3-3--5-5-5-5--4-4-4-4---3-3-3-3--6--5--5-5-5-5-5--5--5--5-> 
A|-2-2-2-2--3-3-3-3--3-3-3-3--4-4-4-4---3-3-3-3--6--5--3-3-3-3-3--5--3--5-> 
E|-0-0-0-0--1-1-1-1-----------2-2-2-2---1-1-1-1--4--3-------------3-----3-> 

e|------------------------------------------------| 
B|------------------------------------------------| 
G|-------------------5-5-5-5----------------------| 
D|-2-2-2-2--3-3-3-3--5-5-5-5--4-4-4-4--3-3-3-3--5-| 
A|-2-2-2-2--3-3-3-3--3-3-3-3--4-4-4-4--3-3-3-3--5-| 
E|-0-0-0-0--1-1-1-1-----------2-2-2-2--1-1-1-1--3-| 

Chorus 

Guitar1+2 
e|--------------------------------------------------------------------> 
B|--------------------------------------------------------------------> 
G|-5-5-5-5-5-5-5-5----------------------------------------------------> 
D|-5-5-5-5-5-5-5-5-------------------7-7-7-7-7-7-7-7--5-5-5-5-5-5-5-5-> 
A|-3-3-3-3-3-3-3-3--2-2-2-2-2-2-2-2--7-7-7-7-7-7-7-7--5-5-5-5-5-5-5-5-> 
E|------------------0-0-0-0-0-0-0-0--5-5-5-5-5-5-5-5--3-3-3-3-3-3-3-3-> 

e|--------------------------------| 
B|--------------------------------| 
G|--------------------------------| 
D|-3-3-3-3-3-3-3-3---6-6-6-6-6--5-| 
A|-3-3-3-3-3-3-3-3---6-6-6-6-6--5-| 
E|-1-1-1-1-1-1-1-1---4-4-4-4-4--3-| 
                                   Guitar2 
e|-------------------------------------------------------------> 
B|-------------------------------------------------------------> 
G|-5-5-5-5-5-5-5-5---------------------------------------------> 
D|-5-5-5-5-5-5-5-5-------------------7-7---/--5-5---/-3-3-3-3--> 
A|-3-3-3-3-3-3-3-3--2-2-2-2-2-2-2-2--7-7--/---5-5--/--3-3-3-3--> 
E|------------------0-0-0-0-0-0-0-0--5-5-/----3-3-/---1-1-1-1--> 

Guitar1 
e|--------------------------------------------------------------------| 
B|-------------------------------------5-6-5-------3-5-3--------------| 
G|-------------------------------------------7-5----------------------| 
D|--------------------------------------------------------------------| 
A|--------------------------------------------------------------------| 
E|--------------------------------------------------------------------| 

Guitar2 
e|--------------| 
B|--------------| 
G|--------------| 
D|-6-6-6-6-6--5-| 
A|-6-6-6-6-6--5-| 
E|-4-4-4-4-4--3-| 

Verse 

Pre-chorus 

Fill 

Guitar2 
e|--------------------------------------------------------------| 
B|--------------------------------------------------------------| 
G|--------------------------------------------------------------| 
D|-7-7-7-7--9-9-9-9--10-10-10-10--12-12-12-12--15-15-15-15--12--| 
A|-7-7-7-7--9-9-9-9--10-10-10-10--12-12-12-12--15-15-15-15--12--| 
E|-5-5-5-5--7-7-7-7---8--8--8--8--10-10-10-10--13-13-13-13--10--| x4 

Guitar1 
e|--------------------------------------------------------------------------| 
B|--------------------------------------------------------------------------| 
G|--------------------------------------------------------------------------| 
D|-7-7-7-7--9-9-9-9--15-15-15-15--14--10-10-10-10--12-12-12-12-12-12-12--10-| 
A|-7-7-7-7--9-9-9-9--15-15-15-15--14--10-10-10-10--12-12-12-12-12-12-12---8-| 
E|-5-5-5-5--7-7-7-7--13-13-13-13--12---8--8--8--8--10-10-10-10-10-10-10---8-| 

Play this after the 2nd guitar has done the first fill. Play only once. 

Chorus 
(First part played without guitars, on the second part the guitars come in)
Suggest correction
Give kudos to tab author, rate the tab!
1 2 3 4 5
comments
print report bad tab
guest
You may want to rate the tab now too:
select rating
Wanna post a correction for this tab? Suggest correction