Oops, an error
Loading. Please wait.

The Boys Of Summer bass

version 7
version 7

Whole song

Interactive

70 views 1 this week
no commentswrite comment
1 2 3 4 5
3 more votes to show rating
add to favorites
×
Save as Personal and add changes to this tab that will be seen only by you. Learn more ›
×
You can save this tab as Personal to edit and correct it or add notes. All changes will be seen only by you. Learn more »
launch autoscroll
font size
0
reset
guitar tuner
edit
Autoscroll
slow
fast
+/-
esc
set tempo
stop
About this tab version
I know it's the seventh version, but all previous versions lack some important features which make this song really unique, i.e., timing, rhythm patterns, etc.. Try it. Was this info helpful? Yes No
The song parts are:


[Intro]
F#|--------|--------|--------|--------|--------|--------|--------|--------|
C#|--------|--------|--------|--------|--------|--------|--------|--------|
G#|7-------|--------|--------|--------|--------|--------|--------|--------|
D#|--------|--------|--------|--------|0-------|--------|--------|--------|
   let ring __________________________ let ring __________________________

F#|--------|--------|--------|--------|--------|--------|--------|--------|
C#|--------|--------|--------|--------|--------|--------|--------|--------|
G#|3-------|--------|--------|--------|5-------|--------|--------|--------|
D#|--------|--------|--------|--------|--------|--------|--------|--------|
   let ring __________________________ let ring __________________________

F#|--------|--------|--------|----------------|
C#|--------|--------|--------|----------------|
G#|3-------|--------|--------|3-3-3-3-3-3-3-3-|
D#|--------|--------|--------|----------------|
   let ring _________________

[Verse]
F#|----------------|      |----------------|      |----------------|
C#|----------------|      |----------------|      |----------------|
G#|----------------| x4   |3---3-3---3-3-3-| x4   |5---5-5---5-5-5-| x4
D#|0---0-0---0-0-0-|      |----------------|      |----------------|

F#|----------------|      |----------------|
C#|----------------|      |----------------|
G#|3---3-3---3-3-3-| x3   |3-3-3-3-3-3-3-3-|
D#|----------------|      |----------------|

[Chorus]
F#|----------------|----------------|----------------|----------------|
C#|----------------|----------------|----------------|------2---2-----|
G#|------------5---|------------0-3-|5---5-5---5-0-3-|5---5-------0-3-|
D#|3---3-3---3-----|3---3-3---3-----|----------------|----------------|

F#|----------------|----------------|----------------|----------------|
C#|----------------|------2---2-----|----------------|----------------|
G#|5---5-5---5-0-3-|5---5-------0-5-|3---3-3---3---0-|3---3-5---5-3-0-|
D#|----------------|----------------|------------3---|----------------|

F#|----------------|----------------|----------------|----------------|
C#|----------------|----------------|----------------|------2---2-----|
G#|------------5---|------------0-3-|5---5-5---5-0-3-|5---5-------0-3-|
D#|3---3-3---3-----|3---3-3---3-----|----------------|----------------|

F#|----------------|----------------|----------------|----------------|
C#|----------------|------2---2-----|----------------|----------------|
G#|5---5-5---5-0-3-|5---5-------0-5-|3---3-3---3---0-|3---3-3---3-3-3-|
D#|----------------|----------------|------------3---|----------------|

[Bridge 1]
F#|----------------|      |----------------|      |----------------|
C#|----------------|      |----------------|      |----------------|
G#|----------------| x4   |3---3-3---3-3-3-| x4   |5---5-5---5-5-5-| x4
D#|0---0-0---0-0-0-|      |----------------|      |----------------|

F#|----------------|      |----------------|
C#|----------------|      |----------------|
G#|3---3-3---3-3-3-| x3   |3-3-3-3-3-3-3-3-|
D#|----------------|      |----------------|

[Verse 2]
F#|----------------|      |----------------|      |----------------|
C#|----------------|      |----------------|      |----------------|
G#|----------------| x4   |3---3-3---3-3-3-| x4   |5---5-5---5-5-5-| x4
D#|0---0-0---0-0-0-|      |----------------|      |----------------|

F#|----------------|      |----------------|
C#|----------------|      |----------------|
G#|3---3-3---3-3-3-| x3   |3-3-3-3-3-3-3-3-|
D#|----------------|      |----------------|

[Chorus 2]
F#|----------------|----------------|----------------|----------------|
C#|----------------|----------------|----------------|------2---2-----|
G#|------------5---|------------0-3-|5---5-5---5-0-3-|5---5-------0-3-|
D#|3---3-3---3-----|3---3-3---3-----|----------------|----------------|

F#|----------------|----------------|----------------|----------------|
C#|----------------|------2---2-----|----------------|----------------|
G#|5---5-5---5-0-3-|5---5-------0-5-|3---3-3---3---0-|3---3-5---5-3-0-|
D#|----------------|----------------|------------3---|----------------|

F#|----------------|----------------|----------------|----------------|
C#|----------------|----------------|----------------|------2---2-----|
G#|------------5---|------------0-3-|5---5-5---5-0-3-|5---5-------0-3-|
D#|3---3-3---3-----|3---3-3---3-----|----------------|----------------|

F#|----------------|----------------|----------------|----------------|
C#|----------------|------2---2-----|----------------|----------------|
G#|5---5-5---5-0-3-|5---5-------0-5-|3---3-3---3---0-|3---3-3---3-3-3-|
D#|----------------|----------------|------------3---|----------------|

[Bridge 2]
F#|--------|--------|--------|--------|---------|--------|--------|--------|
C#|--------|--------|--------|--------|---------|--------|--------|--------|
G#|3-------|--------|--------|----3-/-|15-------|--------|--------|--------|
D#|--------|--------|--------|--------|---------|--------|--------|--------|
   let ring ______________________     let ring ___________________________

F#|----------------|      |----------------|      |----------------|
C#|----------------|      |----------------|      |----------------|
G#|7---7-7---------| x4   |3---3-3---------| x4   |5---5-5---------| x4
D#|----------------|      |----------------|      |----------------|

F#|----------------|      |----------------|
C#|----------------|      |----------------|
G#|3---3-3---------| x3   |3---3-3---3-3-3-|
D#|----------------|      |----------------|

F#|----------------|      |----------------|      |----------------|
C#|----------------|      |----------------|      |----------------|
G#|----------------| x4   |3---3-3---3-3-3-| x4   |5---5-5---5-5-5-| x4
D#|0---0-0---0-0-0-|      |----------------|      |----------------|

F#|----------------|      |----------------|
C#|----------------|      |----------------|
G#|3---3-3---3-3-3-| x3   |3-3-3-3-3-3-3-3-|
D#|----------------|      |----------------|

[Verse 3]
F#|----------------|      |----------------|      |----------------|
C#|----------------|      |----------------|      |----------------|
G#|----------------| x4   |3---3-3---------| x4   |5---5-5---5-5-5-| x4
D#|0---0-0---------|      |----------------|      |----------------|


F#|----------------|      |----------------|
C#|----------------|      |----------------|
G#|3---3-3---3-3-3-| x3   |3---------------|
D#|----------------|      |----------------|
                           stop!

[Chorus 3]
F#|----------------|----------------|----------------|----------------|
C#|----------------|----------------|----------------|------2---2-----|
G#|------------5---|------------0-3-|5---5-5---5-0-3-|5---5-------0-3-|
D#|3---3-3---3-----|3---3-3---3-----|----------------|----------------|

F#|----------------|----------------|----------------|----------------|
C#|----------------|------2---2-----|----------------|----------------|
G#|5---5-5---5-0-3-|5---5-------0-5-|3---3-3---3---0-|3---3-5---5-3-0-|
D#|----------------|----------------|------------3---|----------------|

F#|----------------|----------------|----------------|----------------|
C#|----------------|----------------|----------------|------2---2-----|
G#|------------5---|------------0-3-|5---5-5---5-0-3-|5---5-------0-3-|
D#|3---3-3---3-----|3---3-3---3-----|----------------|----------------|

F#|----------------|----------------|----------------|----------------|
C#|----------------|------2---2-----|----------------|----------------|
G#|5---5-5---5-0-3-|5---5-------0-5-|3---3-3---3---0-|3---3-3---3-3-3-|
D#|----------------|----------------|------------3---|----------------|

[Chorus 4]
F#|----------------|----------------|----------------|----------------|
C#|----------------|----------------|----------------|------2---2-----|
G#|------------5---|------------0-3-|5---5-5---5-0-3-|5---5-------0-3-|
D#|3---3-3---3-----|3---3-3---3-----|----------------|----------------|

F#|----------------|----------------|----------------|----------------|
C#|----------------|------2---2-----|----------------|----------------|
G#|5---5-5---5-0-3-|5---5-------0-5-|3---3-3---3---0-|3---3-5---5-3-0-|
D#|----------------|----------------|------------3---|----------------|

F#|----------------|----------------|----------------|----------------|
C#|----------------|----------------|----------------|------2---2-----|
G#|------------5---|------------0-3-|5---5-5---5-0-3-|5---5-------0-3-|
D#|3---3-3---3-----|3---3-3---3-----|----------------|----------------|

F#|----------------|----------------|----------------|----------------|
C#|----------------|------2---2-----|----------------|----------------|
G#|5---5-5---5-0-3-|5---5-------0-5-|3---3-3---3---0-|3---3-3---3-3-3-|
D#|----------------|----------------|------------3---|----------------|

[Outro]
F#|--------|--------|--------|--------|--------|--------|--------|--------|
C#|--------|--------|--------|--------|--------|--------|--------|--------|
G#|--------|--------|5-------|--------|5-------|--------|3-------|--------|
D#|3-------|--------|--------|--------|--------|--------|--------|--------|
   let ring ________ let ring ________ let ring ________ let ring ________


Each "-" stands EXACTLY for a one-eigth note.
In the parts with the "let ring", I shortened each full measure to half length (didn't want to waste space).


Play the parts in the following order:

Intro = [Intro]
Verse 1 = [Verse]
Chorus 1 = [Chorus]
Bridge 1 = [Verse]
Verse 2 = [Verse]
Chorus 2 = [Chorus]
Bridge 2 = [Bridge] + [Verse]
Verse 3 = [Verse 3]
Chorus 3 = [Chorus]
Chorus 4 = [Chorus]
Outro = [Outro]


Try to get this "dam-da-dam-da-da-da-dam" rhythm feeling, it carries and drives the whole song. 

            
            
Suggest correction
Creating personal tab
Creating personal tab
You can edit any tab online and save it as your Personal.

You can edit, replace or remove any tab part or add personal notes – all changes will be seen only by you.

Personal tabs can be accessed anytime from any device, even offline.
Learn more »
Give kudos to tab author, rate the tab!
1 2 3 4 5
comments
print report bad tab
guest
You may want to rate the tab now too:
select rating
Wanna post a correction for this tab? Suggest correction