Oops, an error
Loading. Please wait.

The Hero Dies In This One Tab

version 1
version 1

Whole song

Interactive

2,069 views 3 this week
2 commentsread comments
1 2 3 4 5
x 3
add to favorites
launch autoscroll
font size
0
reset
how to read this tab
guitar tuner
backing track
0:00
0:00
×
Best way to learn
"The Hero Dies In This One"
Autoscroll
slow
fast
+/-
esc
set tempo
stop
Author
Band: Thhe Ataris
Song: the Hero Dies in this One
Album: So Long, Astoria (track #8)
Tabed by: Greg M. (and Daniel Becker)

This is my favorite song off the Ataria new CD!  I can't take full credit for
this tab, I got the basic from Daniel Becker (dietoskate@gmx.net) at fretplay.com.  I realized
the tab was a bit off... so I fixed it and posted it here. :) Any questions, comments,
or anything, IM me at AudioBoxer829.
Enjoy.

Intro: 
e------------------|
B------------------|
G--7---7---6---6---|
D----7---7---7---7-|
A------------------|
E------------------|

Verse: (palm muted) 
e---------- -------------------------------------------------------|
B------------------------------------------------------------------|
G--7-7-7-7-7-7-7-7-7-7-7-7-7-7-7-7---------------------------------|
D--7-7-7-7-7-7-7-7-7-7-7-7-7-7-7-7-5-5-5-5-5-5-5-5-5-5-5-5-5-5-5-5-|
A--5-5-5-5-5-5-5-5-5-5-5-5-5-5-5-5-5-5-5-5-5-5-5-5-5-5-5-5-5-5-5-5-|
E----------------------------------3-3-3-3-3-3-3-3-3-3-3-3-3-3-3-3-|


Prechorus:
e-------------------------------------|
B-------------------------------------|
G------------------7~-----------------|
D--7~--------------5~--------------7~-| 
A--7~--------------5~--------------5~-| 
E--5~------------------------------5~-| 


Chorus: 
e------------------------------------------------------------------| 
B------------------------------------------------------------------| 
G----------------------------------7-7-7-7-7-7-7-7-----------------|
D--2-2-2-2-2-2-2-2-5-5-5-5-5-5-5-5-7-7-7-7-7-7-7-7-7-7-7-7-7-7-7-7-|
A--2-2-2-2-2-2-2-2-5-5-5-5-5-5-5-5-5-5-5-5-5-5-5-5-7-7-7-7-7-7-7-7-|
E--0-0-0-0-0-0-0-0-3-3-3-3-3-3-3-3-----------------5-5-5-5-5-5-5-5-|

e------------------------------------------------------------------| 
B------------------------------------------------------------------| 
G--4-4-4-4-4-4-4-4-----------------7-7-7-7-7-7-7-7-7-7-7-7-7-7-7-7-| 
D--4-4-4-4-4-4-4-4-5-5-5-5-5-5-5-5-7-7-7-7-7-7-7-7-7-7-7-7-7-7-7-7-|
A--2-2-2-2-2-2-2-2-5-5-5-5-5-5-5-5-5-5-5-5-5-5-5-5-5-5-5-5-5-5-5-5-|
E------------------3-3-3-3-3-3-3-3---------------------------------|

e------------------------------------------------------------------|
B------------------------------------------------------------------|
G----------------------------------7-7-7-7-7-7-7-7-----------------|
D--2-2-2-2-2-2-2-2-5-5-5-5-5-5-5-5-7-7-7-7-7-7-7-7-7-7-7-7-7-7-7-7-|
A--2-2-2-2-2-2-2-2-5-5-5-5-5-5-5-5-5-5-5-5-5-5-5-5-7-7-7-7-7-7-7-7-|
E--0-0-0-0-0-0-0-0-3-3-3-3-3-3-3-3-----------------5-5-5-5-5-5-5-5-|

e--------------|
B--------------|
G-4-4-4-4-7----|
D-4-4-4-4-7-5~-|
A-2-2-2-2-5-5~-|
E-----------3~-|


Solo 
e-0-0-0-2-2-2-----------------0-0-0-2-2-2-----------------0-|
B-------------3-3-3-2-2-2-3-3-------------3-3-3-2-2-2-3-3---|
G-----------------------------------------------------------|
D-----------------------------------------------------------|
A-----------------------------------------------------------|
E-----------------------------------------------------------|

e-3-3-3-2-2-2-------0-0-0-0-0-3-3-3-2-2-2-----------------|
B-------------3-3-3-----------------------3-3-3-3-3-3-3-3-|
G---------------------------------------------------------|
D---------------------------------------------------------| x2
A---------------------------------------------------------|
E---------------------------------------------------------|

Outro
e------------------------------------------------------------------|
B------------------------------------------------------------------|
G--7-7-7-7-7-7-7-7-7-7-7-7-7-7-7-7-4-4-4-4-4-4-4-4-4-4-4-4-4-4-4-4-|
D--7-7-7-7-7-7-7-7-7-7-7-7-7-7-7-7-4-4-4-4-4-4-4-4-4-4-4-4-4-4-4-4-|
A--5-5-5-5-5-5-5-5-5-5-5-5-5-5-5-5-2-2-2-2-2-2-2-2-2-2-2-2-2-2-2-2-|
E------------------------------------------------------------------|

e------------------------------------------------------------------|
B------------------------------------------------------------------|
G------------------------------------------------------------------|
D--2-2-2-2-2-2-2-2-2-2-2-2-2-2-2-2-5-5-5-5-5-5-5-5-5-5-5-5-5-5-5-5-|
A--2-2-2-2-2-2-2-2-2-2-2-2-2-2-2-2-5-5-5-5-5-5-5-5-5-5-5-5-5-5-5-5-|
E--0-0-0-0-0-0-0-0-0-0-0-0-0-0-0-0-3-3-3-3-3-3-3-3-3-3-3-3-3-3-3-3-|

e------------------------------------------------------------------|
B------------------------------------------------------------------|
G--7-7-7-7-7-7-7-7-7-7-7-7-7-7-7-7-4-4-4-4-4-4-4-4-4-4-4-4-4-4-4-4-|
D--7-7-7-7-7-7-7-7-7-7-7-7-7-7-7-7-4-4-4-4-4-4-4-4-4-4-4-4-4-4-4-4-|
A--5-5-5-5-5-5-5-5-5-5-5-5-5-5-5-5-2-2-2-2-2-2-2-2-2-2-2-2-2-2-2-2-|
E------------------------------------------------------------------|

e-------------15~-|
B-----------------|
G-----------------|
D--2-2-2~-5-5-----|
A--2-2-2~-5-5-----|
E--0-0-0~-3-3-----|

Order:
Intro     x2
Verse     x4
Prechorus x1
Verse     x4
Prechorus x1
Chorus    x1
Intro     x1
Verse     x4
Prechorus x1
Chorus    x1
Intro     x4
Solo      x1
Outro     x1
Suggest correction
Give kudos to tab author, rate the tab!
1 2 3 4 5
comments
print report bad tab
2 comments total.
0 reply
Audioboxer829 40 Feb 28, 2004 07:00 PM

oops, i messed up when i posted this... the pre-chorus should be

e|-----------------------------------|
B|-----------------------------------|
G|-------------------7~--------------|
D|-7~-------5~-------7~--------------|
A|-7~-------5~-------5~--------------|
E|-5~-------3~-----------------------|

0 reply
acrilly 10 Sep 29, 2008 12:25 PM

you also need to change the chorus, it should go

e|---------------------------------------------------------|
B|---------------------------------------------------------|
G|-------------------7~--------------------------5---------|
D|-2~-------5~-------7~------8------9------5-----5---------|
A|-2~-------5~-------5~------8------9------5-----7---------|
E|-0~-------3~---------------6------7------3---------------|

Strum to the normal chorus patter, the only problem was the A# chord (866) otherwise nice tab :)

guest
You may want to rate the tab now too:
select rating
Wanna post a correction for this tab? Suggest correction