Oops, an error
Loading. Please wait.

The Saddest Song chords

version 6
version 6

Interactive

143 views 1 this week
no commentswrite comment
1 2 3 4 5
1 last vote to show rating
add to favorites
×
Save as Personal and add changes to this tab that will be seen only by you. Learn more ›
×
You can save this tab as Personal to edit and correct it or add notes. All changes will be seen only by you. Learn more »
launch autoscroll
font size
0
reset
transpose
0
reset
display chords
guitar tuner
edit
Autoscroll
slow
fast
+/-
esc
set tempo
stop
Author
Strumming
There is no strumming pattern for this song yet. and get +5 IQ
Tabbed By: Fabio BlenderBR


 Enjoy!


 - Intro:

Bb  Gm  F  Eb


 - Intro Riff:
e|-------------------------|------------------------------------|-10h11p10----------------|-------------|
B|-10h11p10----------------|-10h11p10---------13--11---------11-|-----------11-----13--11-|-------------|
G|----------10------12--10-|----------10---------------10-12----|---------------12--------|-------------|
D|--------------12---------|---------------12-------------------|-------------------------|-------------|
A|-------------------------|------------------------------------|-------------------------|---6/8h10--8-|   2x
E|-------------------------|------------------------------------|-------------------------|-------------|



 - Verse 1:

Bb              Gm               F               Eb
  Only two more days, until your birthday, Yesterday was mine
Bb                  Gm                    F
  You'll be turning five I know what it's like
                         Eb
growing up without your father in your life



 - Pre Chorus:

Gm      F        Bb          Eb
So I pretend I'm doing all I can
      Gm                  F               Eb
And I hope someday you'll find it in your heart
Gm       F        Bb       Eb
To understand Why I'm not around
       Gm              F             Eb
And forgive me for not being in your life



 - Chorus:

           Bb
I remember waiting For you to come
         Gm
Remember waiting For you to call
         F                                Eb
Remember waiting there to find nothing at all
           Bb
I remember waiting For you to come
         Gm
Remember waiting For you to call
F                                Eb
Waiting there to find nothing at all




 - Intro:

Bb  Gm  F  Eb


 - Intro Riff:
e|-------------------------|------------------------------------|-10h11p10----------------|-------------|
B|-10h11p10----------------|-10h11p10---------13--11---------11-|-----------11-----13--11-|-------------|
G|----------10------12--10-|----------10---------------10-12----|---------------12--------|-------------|
D|--------------12---------|---------------12-------------------|-------------------------|-------------|
A|-------------------------|------------------------------------|-------------------------|---6/8h10--8-|
E|-------------------------|------------------------------------|-------------------------|-------------|



 - Verse 2:

Bb          Gm                    F
  Maybe someday you really get to know me
                     Eb
not just the letters read to you
Bb                 Gm                      F
  I pray I get the chance To make it up to you
                Eb
We got a lot of catching up to do



- Pre Chorus:

Gm      F        Bb          Eb
So I pretend I'm doing all I can
      Gm                  F               Eb
And I hope someday you'll find it in your heart
Gm       F        Bb       Eb
To understand Why I'm not around
       Gm              F             Eb
And forgive me for not being in your life



 - Chorus:

           Bb
I remember waiting For you to come
         Gm
Remember waiting For you to call
         F                                Eb
Remember waiting there to find nothing at all
           Bb
I remember waiting For you to come
         Gm
Remember waiting For you to call
F                                Eb
Waiting there to find nothing at all

           Bb
I remember waiting For you to come
Gm                       F              Eb
Waiting For you to call
           Bb
I remember waiting For you to come (Forgive me)
Gm                                    F    Eb                    Bb
Waiting For you to call (I'm so sorry,     I will make it up to you)

__________
Hope you liked!

Tabbed by: Fabio BlenderBR


            
            
Suggest correction
Creating personal tab
Creating personal tab
You can edit any tab online and save it as your Personal.

You can edit, replace or remove any tab part or add personal notes – all changes will be seen only by you.

Personal tabs can be accessed anytime from any device, even offline.
Learn more »
Give kudos to tab author, rate the tab!
1 2 3 4 5
comments
print report bad tab
guest
You may want to rate the tab now too:
select rating
Wanna post a correction for this tab? Suggest correction