Oops, an error
Loading. Please wait.

Your Boyfriend Sucks tab

version 2
version 2

Whole song

578 views 1 this week
no commentswrite comment
1 2 3 4 5
3 more votes to show rating
add to favorites
×
Save as Personal and add changes to this tab that will be seen only by you. Learn more ›
×
You can save this tab as Personal to edit and correct it or add notes. All changes will be seen only by you. Learn more »
launch autoscroll
font size
0
reset
how to read this tab
guitar tuner
edit
Autoscroll
slow
fast
+/-
esc
set tempo
stop
Author
-------------------------------------------------------------------------------
                      Your Boyfriend Sucks - Ataris
-------------------------------------------------------------------------------
Tabbed by: ManiBass
Email: manuel.koehler@arcor.de


Tuning: Standard (E,A,D,G,B,e)


Verse 1, Part 1:

Guitar 1
Acoustic Guitar


e|-0-0--0-0--0--0-0--0--0-0---4-4--4-4--4--4-4--4--4-4---2-2--2-2--2--2-2--2--2-2---------5----|
B|-0-0--0-0--0--0-0--0--0-0---5-5--5-5--5--5-5--5--5-5---4-4--4-4--4--4-4--4--4-4---------5----|
G|-1-1--1-1--1--1-1--1--1-1---6-6--6-6--6--6-6--6--6-6---4-4--4-4--4--4-4--4--4-4---------6----|
D|-2-2--2-2--2--2-2--2--2-2---6-6--6-6--6--6-6--6--6-6---4-4--4-4--4--4-4--4--4-4---4--6--7----|
A|-2-2--2-2--2--2-2--2--2-2---4-4--4-4--4--4-4--4--4-4---2-2--2-2--2--2-2--2--2-2---4--6--7----|
E|-0-0--0-0--0--0-0--0--0-0---------------------------------------------------------2--4--5----|

Verse 1, Part 2:

Guitar 1
Distored

e|---------------------------------------------------------------|
B|---------------------------------------------------------------|
G|------------------6-6-6-6-6-6-6-6--4-4-4-4-4-4-4-4-------------|2X
D|-2-2-2-2-2-2-2-2--6-6-6-6-6-6-6-6--4-4-4-4-4-4-4-4--4--6--7----|
A|-2-2-2-2-2-2-2-2--4-4-4-4-4-4-4-4--2-2-2-2-2-2-2-2--4--6--7----|
E|-0-0-0-0-0-0-0-0------------------------------------2--4--5----|

e|-------------------------------------------------------------|
B|-------------------------------------------------------------|
G|-------------------------------------------------------------|
D|-----4--------6------7-7-7-7-7-7-7-7-7-7-7-7-7-7-7-7---------|
A|---4---4----6---6----7-7-7-7-7-7-7-7-7-7-7-7-7-7-7-7---------|
E|-2--------4----------5-5-5-5-5-5-5-5-5-5-5-5-5-5-5-5---------|

e|----------------------------------------2--------------------|
B|----------------------------------------4--------------------|
G|-----------------------4-4-4-4-4-4-4-4--4--------------------|
D|-----4--------6----------------------------------------------|
A|---4---4----6---6------2-2-2-2-2-2-2-2--2--------------------|
E|-2--------4--------------------------------------------------|


Guitar 2
Distored

e|--------------------------------------------------------------------|
B|-------5-4---7------12\9--9-9--9-9--9-9-9--7-------------9-10-------|
G|----6----------6-8---------------------------9--9-8-9-9-------9-----|
D|-2--6---------------------------------------------------------------|
A|-2--4---------------------------------------------------------------|
E|-0------------------------------------------------------------------|

e|-----------------------------------|
B|-----------------------------------|
G|-----------------------------------|
D|---7/9-7-6-4~--7/9-7-6-4~----------|
A|-----------------------------------|
E|-----------------------------------|


Bridge:

Guitar 1
Distored

e|-------------------------------------------------------------|
B|-------------------------------------------------------------|
G|------------------6-6-6-6-6-6-6-6--4-4-4-4-4-4-4-4-----------|2X
D|-2-2-2-2-2-2-2-2--6-6-6-6-6-6-6-6--4-4-4-4-4-4-4-4--4--6--7--|
A|-2-2-2-2-2-2-2-2--4-4-4-4-4-4-4-4--2-2-2-2-2-2-2-2--4--6--7--|
E|-0-0-0-0-0-0-0-0------------------------------------2--4--5--|


Guitar 2
Distored

e|-------------------------------------------------------------------------|
B|-9--9-9--9--9-9--5--5-5----------------5--5-5----------------------7-9-5-|
G|------------------------8--8-8--8--8-8--------8--8-8--8--8-8--8--8-------|2X
D|-------------------------------------------------------------------------|
A|-------------------------------------------------------------------------|
E|-------------------------------------------------------------------------|

Vers 2:

Guitar 1
Distored

e|----------------------------------|
B|----------------------------------|
G|------------6------4--------------|2X
D|-----2----6------4----4--6--7-----|
A|---2----4------2------4--6--7-----|
E|-0--------------------2--4--5-----|

e|-------------------------------------------------------------|
B|-------------------------------------------------------------|
G|-------------------------------------------------------------|
D|-----4--------6------7-7-7-7-7-7-7-7-7-7-7-7-7-7-7-7---------|
A|---4---4----6---6----7-7-7-7-7-7-7-7-7-7-7-7-7-7-7-7---------|
E|-2--------4----------5-5-5-5-5-5-5-5-5-5-5-5-5-5-5-5---------|

e|----------------------------------------2--------------------|
B|----------------------------------------4--------------------|
G|-----------------------4-4-4-4-4-4-4-4--4--------------------|
D|-----4--------6----------------------------------------------|
A|---4---4----6---6------2-2-2-2-2-2-2-2--2--------------------|
E|-2--------4--------------------------------------------------|

Guitar 2
Distored

e|------------------------|
B|------5-4---------------|
G|----6------4------------|
D|-2--6------4---4-6-7----|
A|-2--4------2---4-6-0----|
E|-0-------------2-4-0----|

e|------------------------|
B|------5-4------9---12~--|
G|----6------4-----9------|
D|-2--6------4------------|
A|-2--4------2------------|
E|-0----------------------|

e|----------------------------------|
B|----------------------------------|
G|----------------------------------|
D|---7/9-7-6-4~--7/9-7-6-4~---------|
A|----------------------------------|
E|----------------------------------|

Outro:

Guitar 1
Distored

e|-----------------------|
B|-----------------------|
G|-----------------------|
D|-2~--2~--2~--2~--------|
A|-2~--2~--2~--2~--------|
E|-0~--0~--0~--0~--------|

e|-----------------------|
B|-----------------------|
G|-----6-6-6--4-4-4--2~--|6X
D|-2~--6-6-6--4-4-4--2~--|
A|-2~--4-4-4--2-2-2--0~--|
E|-0~--------------------|

e|-----------------------------------------------------|
B|-----------------------------------------------------|
G|-------6-6-6--4-4-4--2------2------2------2---2------|
D|---2~--6-6-6--4-4-4--2------2------2------2---2------|
A|---2~--4-4-4--2-2-2--0--0-0----0-0----0-0---0--------|
E|-0~--------------------------------------------------|

e|--------------------------|
B|--------------------------|
G|-----6-6-6--4-4-4--2~-----|
D|-2~--6-6-6--4-4-4--2~-----|
A|-2~--4-4-4--2-2-2--0~-----|
E|-0~-----------------------|

Guitar 2

e|--------x--x-x-x---(12)-(14)-(16)---------------------------------|
B|------------------------------------------------------------------|
G|-----------------------------------9--9p8--8--8-h-9--9p8--8--8----|
D|-----------------------------------9--9-9--9--9---9--9-9--9--9----|
A|-7/9-11----------------------------7--7-7--7--7---7--7-7--7--7----|
E|------------------------------------------------------------------|

e|----------------------------------------------------------|
B|----------------------------------------------------------|
G|-/13b14b13------------------------------------------------|
D|-------------4-4-6--2-2-4--2~---2/9--9--9--9-9-7----------|
A|----------------------------------------------------------|
E|----------------------------------------------------------|

e|----------------------------------------------------------|
B|-----------------------------5-5-5-5\4--4--4--4-4---------|
G|--13b14b13-------------------4-4-4-4----4--4--4-4---------|
D|------------4-4-6--2-2-4-2~--2-2-2-2----2--2--2-2---------|
A|----------------------------------------------------------|
E|----------------------------------------------------------|

e|-----------------------------------------------|
B|-----------------------------------------------|
G|--13b14b13-------------------------------------|
D|------------4-4-6--2-2-4-2~---2/9-6-7~---------|
A|-----------------------------------------------|
E|-----------------------------------------------|


e|----------------------------------------------------------------|
B|-----------------------------5-5-5-5\4--4--4--4-4---------------|
G|--13b14b13-------------------4-4-4-4----4--4--4-4---------------|
D|------------4-4-6--2-2-4-2~--2-2-2-2----2--2--2-2---------------|
A|----------------------------------------------------------------|
E|----------------------------------------------------------------|

e|----------------------------------------------------------------|
B|-----------------------------5-5-5-5\4--4--4--4-4-/9------------|
G|--13b14b13-------------------4-4-4-4----4--4--4-4---------------|
D|------------4-4-6--2-2-4-2~--2-2-2-2----2--2--2-2---------------|
A|----------------------------------------------------------------|
E|----------------------------------------------------------------|

e|----------------------------------------------------------------|
B|-----------------------------5-5-5-5\4--4--4--0-----------------|
G|--13b14b13-------------------4-4-4-4----4--4--4-----------------|
D|------------4-4-6--2-2-4-2~--2-2-2-2----2--2--2-----------------|
A|----------------------------------------------------------------|
E|----------------------------------------------------------------|

e|----------------------------------------------------------------|
B|----------------------------------------------------------------|
G|--13b14b13------------------------------------------------------|
D|------------4-4-6--2-2-4-2~--2/9--9--9--9-9-9-------------------|
A|----------------------------------------------------------------|
E|----------------------------------------------------------------|

e|----------------------------------------------------------------|
B|-----------------------------5-5-5-5\4--4--4--0-0---------------|
G|--13b14b13-------------------4-4-4-4----4--4--4-4---------------|
D|------------4-4-6--2-2-4-2~--2-2-2-2----2--2--2-2----6b7b6------|
A|----------------------------------------------------------------|
E|----------------------------------------------------------------|


| h  hammer
|(*) mute *
| x  mute note
| /  slide up
| \  slide down
| b  bend
| ~  vibrato
| p  pull off
===============================================================================

            
            
Suggest correction
Creating personal tab
Creating personal tab
You can edit any tab online and save it as your Personal.

You can edit, replace or remove any tab part or add personal notes – all changes will be seen only by you.

Personal tabs can be accessed anytime from any device, even offline.
Learn more »
Give kudos to tab author, rate the tab!
1 2 3 4 5
comments
print report bad tab
guest
You may want to rate the tab now too:
select rating
Wanna post a correction for this tab? Suggest correction