Oops, an error
Loading. Please wait.

Sexecutioner tab

16 views 6 this week
no commentswrite comment
1 2 3 4 5
3 more votes to show rating
add to favorites
×
Save as Personal and add changes to this tab that will be seen only by you. Learn more ›
×
You can save this tab as Personal to edit and correct it or add notes. All changes will be seen only by you. Learn more »
launch autoscroll
font size
0
reset
how to read this tab
guitar tuner
edit
Autoscroll
slow
fast
+/-
esc
set tempo
stop
About this tab version
I have not found any other tab for this song so I wrote my own. This is my first tab. It's a fast song and pretty hard to play, with a lot of unusual rhythm changes, the outro is particularly cool. I used Riffstation to slow the song right down to get it as accurate as possible. Check out the exact version I tabbed https://www.youtube.com/watch?v=yHIJTEHaWY0. Was this info helpful? Yes No
Sexecutioner - The Atomic Bitchwax
:: Tab by Glenn Rees, 2017

Tuning = C (C F A# D# G C)
Tempo = 94 bpm

[Intro]
C |------------------------------------|
F |------------------------------------|
A#|------------------------------------|
D#|------------------------------------|
G |------------------------------------|
C |-0-8-0-10-0-11-12-(x7)-0-8-0-10\----|

[Verse (part 1)]
"Yeah!..I never ever knew someone..."
C |------------------------------------|
F |------------------------------------|
A#|------------------------------------|
D#|------------------------------------|
G |------------------------------------|
C |--0-8-0-10-0-11-12------------------|(x11)

[Verse (part 2)]
                                "I waited all this fucking time..."
C |----------------------------------------------------------------------|
F |----------------------------------------------------------------------|
A#|---------------------------------------7h9-7--------------------------|
D#|-------9-9-9-10-7-7-7-7-7-7-7-7-7-7-7--------9------------------------|
G |-------9-9-9-10-7-7-7-7-7-7-7-7-7-7-7----------10-7-7-7-7-10-7-0h7~7\-|
C |-0-8-0-7-7-7-8--5-5-5-5-5-5-5-5-5-5-5---------------------------------|

C |---------------------------------------------------------------|
F |---------------------------------------------------------------|
A#|-4-4-4-5-7-7-7-7-7-7-7-7-7-7-7-----------9---9-----9---9-------|
D#|-4-4-4-5-7-7-7-7-7-7-7-7-7-7-7-7-7-7-----9---9-----9---9-------|
G |-2-2-2-3-5-5-5-5-5-5-5-5-5-5-5-7-7-7-----7---7-----7---7-------|
C |-------------------------------5-5-5-0-0---x---x-x---x---x-x---|

                                "I'm killing time, I'll keep it level"
C |---------------------------------------------------------------|
F |---------------------------------------------------------------|
A#|-4-4-4-5--2---2-2-2-2-2-2-2--------------9-----9-----9---9-----|
D#|-4-4-4-5--2---2-2-2-2-2-2-2--4-4-4-5-----9-----9-----9---9-----|
G |-2-2-2-3--0---0-0-0-0-0-0-0--4-4-4-5-----7-----7-----7---7-----|
C |-----------------------------2-2-2-3-0-----x-x---x-x---x---x---|

                                "We've only got 10 minutes to go!..."
C |------------------------------------------------------------------------------------------|
F |------------------------------------------------------------------------------------------|
A#|--4-4-4-5--2---2-2-2-2-2-2-2--------------------------------------------------------------|
D#|--4-4-4-5--2---2-2-2-2-2-2-2--4-4-4-5-----------------------------------------------------|
G |--2-2-2-3--0---0-0-0-0-0-0-0--4-4-4-5-----------------------------------------------------|
C |------------------------------2-2-2-3-0-8-0-10-0-11-12-0-8-0-10-0-11-12-0-8-0-10-0-11-12--|

                                "I waited all this fucking time..."
C |----------------------------------------------------------------------|
F |----------------------------------------------------------------------|
A#|---------------------------------------7h9-7--------------------------|
D#|-------9-9-9-10-7-7-7-7-7-7-7-7-7-7-7--------9------------------------|
G |-------9-9-9-10-7-7-7-7-7-7-7-7-7-7-7----------10-7-7-7-7-10-7-0h7~7\-|
C |-0-8-0-7-7-7-8--5-5-5-5-5-5-5-5-5-5-5---------------------------------|

C |---------------------------------------------------------------|
F |---------------------------------------------------------------|
A#|-4-4-4-5-7-7-7-7-7-7-7-7-7-7-7-----------9---9-----9---9-------|
D#|-4-4-4-5-7-7-7-7-7-7-7-7-7-7-7-7-7-7-----9---9-----9---9-------|
G |-2-2-2-3-5-5-5-5-5-5-5-5-5-5-5-7-7-7-----7---7-----7---7-------|
C |-------------------------------5-5-5-0-0---x---x-x---x---x-x---|

                                "I'm killing time, I'll keep it level"
C |---------------------------------------------------------------|
F |---------------------------------------------------------------|
A#|-4-4-4-5--2---2-2-2-2-2-2-2--------------9-----9-----9---9-----|
D#|-4-4-4-5--2---2-2-2-2-2-2-2--4-4-4-5-----9-----9-----9---9-----|
G |-2-2-2-3--0---0-0-0-0-0-0-0--4-4-4-5-----7-----7-----7---7-----|
C |-----------------------------2-2-2-3-0-----x-x---x-x---x---x---|

        "We've only got 5 minutes to go!..."
C |-----------------------------------------|
F |-----------------------------------------|
A#|--4-4-4-5--2---2-2-2-2-2-2-2-------------|
D#|--4-4-4-5--2---2-2-2-2-2-2-2--4-4-4-5----|
G |--2-2-2-3--0---0-0-0-0-0-0-0--4-4-4-5----|
C |------------------------------2-2-2-3-0--|

[Break. Timimg here is tricky.]
C |----------------------------------------------------------------------------------------------|
F |----------------------------------------------------------------------------------------------|
A#|----9-----9-----9---9------9-----9-----9---9-------9-----9-----9---9-----9-----9-----9---9----|
D#|----9-----9-----9---9------9-----9-----9---9-------9-----9-----9---9-----9-----9-----9---9----|
G |----7-----7-----7---7------7-----7-----7---7-------7-----7-----7---7-----7-----7-----7---7----|
C |------x-x---x-x---x---x-x----x-x---x-x---x----x-x----x-x---x-x---x---x-x---x-x---x-x---x------|

C |------------------------------------|
F |------------------------------------|
A#|-----9------9------9------9---------|
D#|-----9------9------9------9---------|
G |-----7------7------7------7--7-8-9~-|
C |-x-x----x-x----x-x----x-x-----------|

Bass, then guitar solo. For the guitar solo just play around in this scale and you will come up 
with something cool. Use a Wah pedal!
C |----12-13-14----17-19---------------|
F |----12-13-14----17-19---------------|
A#|----------14-16---------------------|
D#|----------14-16---------------------|
G |------------------------------------|
C |------------------------------------|

[Intro/mini break]
C |------------------------------------|
F |------------------------------------|
A#|------------------------------------|
D#|------------------------------------|
G |------------------------------------|
C |-0-8-0-10-0-11-12-(x3)-0-8-0-10\----|

[Intro/Verse (part 1)]
"Yeah!..Well if you hear about it baby..."
C |------------------------------------|
F |------------------------------------|
A#|------------------------------------|
D#|------------------------------------|
G |------------------------------------|
C |-0-8-0-10-0-11-12-------------------|(x11)

[Verse (part 2)]
                                "I waited all this fucking time..."
C |----------------------------------------------------------------------|
F |----------------------------------------------------------------------|
A#|---------------------------------------7h9-7--------------------------|
D#|-------9-9-9-10-7-7-7-7-7-7-7-7-7-7-7--------9------------------------|
G |-------9-9-9-10-7-7-7-7-7-7-7-7-7-7-7----------10-7-7-7-7-10-7-0h7~7\-|
C |-0-8-0-7-7-7-8--5-5-5-5-5-5-5-5-5-5-5---------------------------------|

C |---------------------------------------------------------------|
F |---------------------------------------------------------------|
A#|-4-4-4-5-7-7-7-7-7-7-7-7-7-7-7-----------9---9-----9---9-------|
D#|-4-4-4-5-7-7-7-7-7-7-7-7-7-7-7-7-7-7-----9---9-----9---9-------|
G |-2-2-2-3-5-5-5-5-5-5-5-5-5-5-5-7-7-7-----7---7-----7---7-------|
C |-------------------------------5-5-5-0-0---x---x-x---x---x-x---|

                                "I'm killing time, I've lived forever"
C |---------------------------------------------------------------|
F |---------------------------------------------------------------|
A#|-4-4-4-5--2---2-2-2-2-2-2-2--------------9-----9-----9---9-----|
D#|-4-4-4-5--2---2-2-2-2-2-2-2--4-4-4-5-----9-----9-----9---9-----|
G |-2-2-2-3--0---0-0-0-0-0-0-0--4-4-4-5-----7-----7-----7---7-----|
C |-----------------------------2-2-2-3-0-----x-x---x-x---x---x---|

                                "We've only got 1 minute to go!..." (guitar solo 2 starts)
C |-------------------------------------------------------------------------------------------|
F |-------------------------------------------------------------------------------------------|
A#|--4-4-4-5--2---2-2-2-2-2-2-2-------------9---9-----9---9-------4-4-4-5--2---2-2-2-2-2-2-2--|
D#|--4-4-4-5--2---2-2-2-2-2-2-2-4-4-4-5-----9---9-----9---9-------4-4-4-5--2---2-2-2-2-2-2-2--|
G |--2-2-2-3--0---0-0-0-0-0-0-0-4-4-4-5-----7---7-----7---7-------2-2-2-3--0---0-0-0-0-0-0-0--|
C |-----------------------------2-2-2-3-0-----x---x-x---x---x-x-------------------------------|

(The rhythm on this part is subtly different!)
C |-------------------------------------------------------------------------------------------|
F |-------------------------------------------------------------------------------------------|
A#|--------------9-----9-----9---9----4-4-4-5--2---2-2-2-2-2-2-2------------------------------|
D#|-4-4-4-5------9-----9-----9---9----4-4-4-5--2---2-2-2-2-2-2-2-4-4-4-5----------------------|
G |-4-4-4-5------7-----7-----7---7----2-2-2-3--0---0-0-0-0-0-0-0-4-4-4-5----------------------|
C |-2-2-2-3-0--x---x-x---x-x---x---x-----------------------------2-2-2-3-0--------------------|

[Outro]
C |-----------------------------|
F |-----------------------------|
A#|---9-----9-----9-9-----------|
D#|---9-----9-----9-9-----------|
G |---7-----7-----7-7-----------|
C |-x---x-x---x-x---------------|

C |-----------------------------|
F |-----------------------------|
A#|-----9-----9-----9-9-9-------|
D#|-----9-----9-----9-9-9-------|
G |-----7-----7-----7-7-7-------|
C |-x-x---x-x---x-x-------------|

C |-----------------------------|
F |-----------------------------|
A#|-----9-----9-----9-9-9-9-----|
D#|-----9-----9-----9-9-9-9-----|
G |-----7-----7-----7-7-7-7-----|
C |-x-x---x-x---x-x-------------|

C |-----------------------------|
F |-----------------------------|
A#|-----9-----9-----9-9-9-9-9---|
D#|-----9-----9-----9-9-9-9-9---|
G |-----7-----7-----7-7-7-7-7---|
C |-x-x---x-x---x-x-------------|

Repeat until you get to 8 beats on the last chord of the sequence. Nasty!

************************************
| \   slide down
| h   hammer-on
| ~   vibrato
| x   Mute note
************************************
Suggest correction
Creating personal tab
Creating personal tab
You can edit any tab online and save it as your Personal.

You can edit, replace or remove any tab part or add personal notes – all changes will be seen only by you.

Personal tabs can be accessed anytime from any device, even offline.
Learn more »
Give kudos to tab author, rate the tab!
1 2 3 4 5
comments
print report bad tab
guest
You may want to rate the tab now too:
select rating
Wanna post a correction for this tab? Suggest correction