Oops, an error
Loading. Please wait.

Approach The Bench tab

version 1
version 1

Whole song

4,152 views 1 this week
3 commentsread comments
1 2 3 4 5
x 3
add to favorites
×
Save as Personal and add changes to this tab that will be seen only by you. Learn more ›
×
You can save this tab as Personal to edit and correct it or add notes. All changes will be seen only by you. Learn more »
launch autoscroll
font size
0
reset
how to read this tab
guitar tuner
edit
Autoscroll
slow
fast
+/-
esc
set tempo
stop
Difficulty
-------------------------------------------------------------------------------
                         The Audition - Approach The Bench
-------------------------------------------------------------------------------
Tabbed by: Josh
Email: bikesjd14@hotmail.com

Tuning: 1/2 Step Down & Dropped D (Db-Ab-Db-Gb-Gb-eb)

Intro w/ delay
eb|-------------------------------------------------------------------------------|
Bb|-------------------------------------------------------------------------------|
Gb|-------------------------------------------------------------------------------|
Db|--2---------0------------------------------------------------------------------|
Ab|--2---------0------------------------------------------------------------------|
Db|--2---------0------------------------------------------------------------------|

Intro/Outro/Transition
eb|---------------------------------------------------------------|
Bb|---------------------------------------------------------------|
Gb|---------4-7-----------4-7-----------22----220---4p2p0--4p2p0--|
Db|--2----5-------22----5-------------0-----0---------------------|
Ab|--2------------22------------------0-----0---------------------|
Db|--2------------22------------------0-----0---------------------|

Verse
eb|-------------------------------------------------------------------------------------|
Bb|-------------------------------------------------------------------------------------|
Gb|-------------------------------------------------------------------------------------|
Db|---2----222----------0----000--------------------------------------------------------|
Ab|---2----222----------0----000--------------------------------------------------------|
Db|---2----222----------0----000--------------------------------------------------------|

Chorus
eb|--------------------------------------------------------------------------------|
Bb|--------------------------------------------------------------------------------|
Gb|--5-----------------------------------------------------------------------------|
Db|--5-----2------0----------------------------------------------------------------|
Ab|--3-----2------0----------------------------------------------------------------|
Db|--------2------0----------------------------------------------------------------|

That's really about it...Those are the only three chords used and if you listen to the 
you can figure out the rhythym/where it's palm muted/etc.

| /  slide up
| \  slide down
| h  hammer-on
| p  pull-off
| ~  vibrato
| +  harmonic
| x  Mute note
===============================================================================

            
            
Suggest correction
Creating personal tab
Creating personal tab
You can edit any tab online and save it as your Personal.

You can edit, replace or remove any tab part or add personal notes – all changes will be seen only by you.

Personal tabs can be accessed anytime from any device, even offline.
Learn more »
Give kudos to tab author, rate the tab!
1 2 3 4 5
comments
print report bad tab
3 comments total.
0 reply
prettyboypunter 10 Feb 27, 2006 04:19 PM

dude acts like theres only 3 chords in the chorus hes way off

0 reply
duffmansweenie 54 May 23, 2006 04:20 PM

looks pretty good to me

0 reply
JasonZ14 73 Dec 22, 2006 08:16 AM

seems a little easier to play the beggining part like..

eb|---------------------------------------------------------------|
Bb|-----------3---------------3-----------------------------------|
Gb|------0-4------------0-4-------------22----220---4p2p0--4p2p0--|
Db|--2------------22------------------0-----0---------------------|
Ab|--2------------22------------------0-----0---------------------|
Db|--2------------22------------------0-----0---------------------|

but a good start tho

guest
Wanna post a correction for this tab? Suggest correction