Oops, an error
Loading. Please wait.

Dont Be So Hard Acoustic tab

version 4
version 4

Whole song

Interactive

18,057 views 18 this week
2 commentsread comments
1 2 3 4 5
x 8
add to favorites
×
Save as Personal and add changes to this tab that will be seen only by you. Learn more ›
×
You can save this tab as Personal to edit and correct it or add notes. All changes will be seen only by you. Learn more »
launch autoscroll
font size
0
reset
how to read this tab
guitar tuner
edit
Autoscroll
slow
fast
+/-
esc
set tempo
stop
I edited SKITCH26's tab and don't feel like emailing him.
So full credit to him, save the intro. I might edit this more.
I watched a live video so it's pretty accurate.
and easier to play -- the intro that is.

p = pull off
h = hammer on
\ = slide toward top of neck
x = mute
PM= Palm Mute

"Don't Be So Hard"
The Audition


e- -----5-----------5---------5----0----0----0---7p5----|
B- ------7--7---7----7---------7----7----7----7---------|
G- --7-------7---7------7--7----------------------------|  x2
D- -5-5---5---5---5----5--0-0----0----0----0------------|
A- -----------------------------------------------------|
D- -----------------------------------------------------|


 "Don't be so hard on yourself..."
e- -x--------x-------x--------------|-----x------x----x-------|
B- -8--------3-------5--------------|-----8------3----5-------|
G- -7--x16---2--x8---4--x8-(slowly)-|-----7------2----4-------|
D- -5--------0-------2--------------|-----5------0----2-------|
A- -5--------0-------2--------------|-----5------0----2-------|
D- -5--------0-------2--------------|-----5------0----2-------|
    ^-------------x4------------------------------------------|

 "Hold me, Hold me if I..."
e- -x--------x-------x---------------|-------0---0---0---0---0---0---0---0--|
B- -8--------3-------5---------------|------3-3-3-3-3-3-3-3-3-3-3-3-3-3-3-3-|
G- -7--x16---2--x8---4--x8-(faster)--|-----2---2---2---2---2---2---2---2----|
D- -5--------0-------2---------------|--------------------------------------|
A- -5--------0-------2---------------|--------------------------------------|
D- -5--------0-------2---------------|--------------------------------------|
    ^----------------x4-----------------------------------------------------|


 "Don't think too hard about....."
e- -----------------------------------------------------|
B- -----------------------------------------------------|
G- -----------------------------------------------------|
D- -5--x16---0--x8---2--x8---5--x16---0--x8---5--x8-----|
A- -5--------0-------2-------5--------0-------5---------|
D- -5--------0-------2-------5--------0-------5---------|
   ....................PM......................

 "Do you..."
e- -----------------------------------------------------------------------|
B- -x-x-8-8-x-x-8-8-x-x-8-8-x-x-8-8---3----5------------------------------|
G- -x-x-7-7-x-x-7-7-x-x-7-7-x-x-7-7---2----4------------------------------|
D- -x-x-5-5-x-x-5-5-x-x-5-5-x-x-5-5---0----2------------------------------|
A- -x-x-5-5-x-x-5-5-x-x-5-5-x-x-5-5---0----2------------------------------|
D- -x-x-5-5-x-x-5-5-x-x-5-5-x-x-5-5---0----2------------------------------|


 "I wave my goodbyes..."
e- -----------------------------------------------------------------------|
B- -x-x-8-8-x-x-8-8-x-x-8-8-x-x-8-8--3-----5-5-5-5-5-5-5-5----------------|
G- -x-x-7-7-x-x-7-7-x-x-7-7-x-x-7-7--2-----4-4-4-4-4-4-4-4----------------|
D- -x-x-5-5-x-x-5-5-x-x-5-5-x-x-5-5--0-----2-2-2-2-2-2-2-2----------------|
A- -x-x-5-5-x-x-5-5-x-x-5-5-x-x-5-5--0-----2-2-2-2-2-2-2-2----------------|
D- -x-x-5-5-x-x-5-5-x-x-5-5-x-x-5-5--0-----2-2-2-2-2-2-2-2----------------|

 "Hold me, Hold me if I..."
e- -x--------x-------x--------------------|
B- -8--------3-------5--------------------|
G- -7--x16---2--x8---4--x8-(faster)-------| x4
D- -5--------0-------2--------------------|
A- -5--------0-------2--------------------|
D- -5--------0-------2--------------------|


 "Say you'll never ever...."
e- -x-----|x-x-x-x-x-x-x-x-x-x-x-x-x-x-x-x-x-x-x-x-x-x-x-x-x-x-x-x-x-x-x-x-|
B- -x-----|8-8-x-x-x-x-x-x-3-3-x-x-x-x-x-x-5-5-x-x-x-x-x-x-8-8-x-x-8-8-x-x-|
G- -x-x32-|7-7-x-x-x-x-x-x-2-2-x-x-x-x-x-x-4-4-x-x-x-x-x-x-7-7-x-x-7-7-x-x-|
D- -x-----|5-5-x-x-x-x-x-x-0-0-x-x-x-x-x-x-2-2-x-x-x-x-x-x-5-5-x-x-5-5-x-x-|
A- -x-----|5-5-x-x-x-x-x-x-0-0-x-x-x-x-x-x-2-2-x-x-x-x-x-x-5-5-x-x-5-5-x-x-|
D- -x-----|5-5-x-x-x-x-x-x-0-0-x-x-x-x-x-x-2-2-x-x-x-x-x-x-5-5-x-x-5-5-x-x-|
           ^-------------------------x3------------------------------------|

"Sooooooooooooooooooouuuuul"
e- ---------------------------------------------------------9-9-9-9-------|
B- -6-7-6-7-6-7-6-7-6-7-6-7-9-9-9-9-6-7-6-7-6-7-6-7-6-7-6-7---------------|
G- -----------------------------------------------------------------------|
D- -----------------------------------------------------------------------|
A- -----------------------------------------------------------------------|
D- -----------------------------------------------------------------------|

e- -----------------------------------------------------------------------|
B- -6-7-6-7-6-7-6-7-6-7-6-7-9-9-9-9-6-7-6-7-6-7-6-7-6-7-6-7-7--7--7--5----|
G- ---------------------------------------------------------6--6--6--4----|
D- ---------------------------------------------------------4--4--4--2----|
A- ---------------------------------------------------------4--4--4--2----|
D- -----------------------------------------------------------------------|

  Hold me, Hold me if I...
e- -x------x-----x----|-x------x--x--x--x-|-x------x-----x---------------|
B- -8------3-----5----|-8------3--3--5--5-|-8------3-----5---------------|
G- -7-x16--2-x8--4-x8-|-7-x16--2--2--4--4-|-7-x16--2-x8--4-x8------------|
D- -5------0-----2----|-5------0--0--2--2-|-5------0-----2---------------|
A- -5------0-----2----|-5------0--0--2--2-|-5------0-----2---------------|
D- -5------0-----2----|-5------0--0--2--2-|-5------0-----2---------------|
    ^-----x2-------------------------------------------------------------|

e- -x\-x--x\-x-------------------------|
B- -8\-x--8\-x-------------------------|         
G- -7\-x--7\-x-------------------------|         
D- -5\-x--5\-x-------------------------|         
A- -5\-x--5\-x-------------------------|         
D- -5\-x--5\-x-------------------------|


Tabs by: SKITCH26
If there are any questions on these tabs then just email him
yougottalovethepanda@yahoo.com

            
            
Suggest correction
Creating personal tab
Creating personal tab
You can edit any tab online and save it as your Personal.

You can edit, replace or remove any tab part or add personal notes – all changes will be seen only by you.

Personal tabs can be accessed anytime from any device, even offline.
Learn more »
comments
print report bad tab
2 comments total.
0 reply
deartragedy 10 Jan 27, 2011 09:24 PM

"that was dead on!" :)

0 reply
deartragedy 10 Jan 27, 2011 09:47 PM

btw, tuning is down half a step. Db Ab Db Gb Bb Eb

guest
Wanna post a correction for this tab? Suggest correction