Oops, an error
Loading. Please wait.

Ether tab

version 2
version 2

Whole song

64 views 6 this week
no commentswrite comment
1 2 3 4 5
3 more votes to show rating
add to favorites
×
Save as Personal and add changes to this tab that will be seen only by you. Learn more ›
×
You can save this tab as Personal to edit and correct it or add notes. All changes will be seen only by you. Learn more »
launch autoscroll
font size
0
reset
how to read this tab
guitar tuner
edit
Autoscroll
slow
fast
+/-
esc
set tempo
stop
Artist: The Audition
Song: Ether
Album: Champion
Tabbed by: gustavoaraujo999@hotmail.com

**Drop C# (but can easily be played in Half-step down)
**I think the guitars play the same chords in different positions:

   Bm  C#  F#m            B5  C#5 F#5
D#|-3-|-2-|-3-|        D#|---|---|---|
A#|-4-|-3-|-3-|        A#|---|---|---|
F#|-5-|-2-|-3-|   or   F#|-5-|---|---|
C#|-5-|-0-|-5-|        C#|-5-|-0-|-5-|
G#|---|---|---|        G#|-3-|-0-|-5-|
C#|---|---|---|        C#|---|-0-|-5-|



[Intro 1]
D#|-3---2---3--|--3---2---3--|
A#|-4---3---3--|--4---3---3--|
F#|-5---2---3--|--5---2---3--|
C#|-5---0---5--|--5---0---5--|
G#|-3-------5--|--3-------5--|
C#|------------|-------------|

D#|----------------------------------------------------------|
A#|-15----15----15----15----15----15-----15-----15-----15----|
F#|----17----17----17----17----17----17--17b19--17b19--17b19-|
C#|----------------------------------------------------------|
G#|----------------------------------------------------------|
C#|----------------------------------------------------------|


[Intro 2]
D#|--------------------------------------------------------|
A#|--------------------------------------------------------|
F#|--5-5--3h5p3---------3h5p3---------3h5p3--------3h5p3---|
C#|--5-5--------5--5-5--------5--0-0--------5--5-5-------5-|
G#|--3-3-----------5-5-----------0-0-----------5-5---------|
C#|----------------5-5-----------0-0-----------5-5---------|

D#|--------------------------------------------------------|
A#|--------------------------------------------------------|
F#|--5-5--3h5p3---------3h5p3------------------------------|
C#|--5-5--------5--5-5--------5--0-0-0-0-0-0-0-0-0---------|
G#|--3-3-----------5-5-----------0-0-0-0-0-0-0-0-0---------|
C#|----------------5-5-----------0-0-0-0-0-0-0-0-0---------|


[Verse]
-guitar 1
D#|-----------------3-3--------3-3-|
A#|-----------------3-3--------3-3-|
F#|-5-----7-----5-5-3-3----x-5-3-3-|
C#|-5-----7-----5-5-5-5----x-5-5-5-|
G#|-3-----5-----3-3--------x-3-----|
C#|--------------------------------|

-guitar 2
D#|---------------3----------3-----|
A#|---------------3----------3-----|
F#|-5-----7-----5-3--------x-3-----|
C#|-5-----7-----5-5-5-5----x-5-5-5-|
G#|-3-----5-----3---5-5----x---5-5-|
C#|-----------------5-5--------5-5-|


[Pre-chorus]
-guitar 1
D#|-----------------------------------------------------------|
A#|----------------------15-15---------10-10------------------|
F#|-------12-12-------12------------11----------------12-12---|
C#|----12----------12------------12----------------12---------|
G#|-10------------------------------------------10------------|
C#|-----------------------------------------------------------|

-guitar 2
D#|-------------------------------------|
A#|-------------------------------------|
F#|-------------------------------------|
C#|-------------------------------------|
G#|-3-3-3-3/5---------5-5-5-5-3---------|
C#|-----------5-5-5-5-----------5/8-----|


[Chorus]
-guitar 1
D#|-3333-3333-------------2222-3333-----------3333-3333----------------------------|
A#|-4444-3333-------------3333-3333-----------4444-3333----------------------------|
F#|-5555-3333-5/7-5-3-----2222-3333-----3-----5555-3333-5/7-5-3---x7x7x7x7x7x7x7x7-|
C#|-5555-5555---------5---0000-5555-3-5---5---5555-5555---------5-x7x7x7x7x7x7x7x7-|
G#|---------------------------------------------------------------x5x5x5x5x5x5x5x5-|
C#|--------------------------------------------------------------------------------|

-guitar 2
D#|--------------------------------------------------------------------------------|
A#|--------------------------------------------------------------------------------|
F#|-5555------5/7-5-3-------------------3-----5555------5/7-5-3---x7x7x7x7x7x7x7x7-|
C#|-5555-5555---------5---0000-5555-3-5---5---5555-5555---------5-x7x7x7x7x7x7x7x7-|
G#|-3333-5555-------------0000-5555-----------3333-5555-----------x5x5x5x5x5x5x5x5-|
C#|------5555-------------0000-5555----------------5555----------------------------|


[Interlude]
D#|--------------------------------------------------------|
A#|--------------------------------------------------------|
F#|--5-5--3h5p3---------3h5p3---------3h5p3--------3h5p3---|
C#|--5-5--------5--5-5--------5--0-0--------5--5-5-------5-|
G#|--3-3-----------5-5-----------0-0-----------5-5---------|
C#|----------------5-5-----------0-0-----------5-5---------|

D#|--------------------------------------------------------|
A#|--------------------------------------------------------|
F#|--5-5--3h5p3---------3h5p3------------------------------|
C#|--5-5--------5--5-5--------5--0-0-0-0-0-0-0-0-0---------|
G#|--3-3-----------5-5-----------0-0-0-0-0-0-0-0-0---------|
C#|----------------5-5-----------0-0-0-0-0-0-0-0-0---------|


[Verse]
-guitar 1
D#|-----------------3-3--------3-3-|
A#|-----------------3-3--------3-3-|
F#|-5-----7-----5-5-3-3----x-5-3-3-|
C#|-5-----7-----5-5-5-5----x-5-5-5-|
G#|-3-----5-----3-3--------x-3-----|
C#|--------------------------------|

-guitar 2
D#|---------------3----------3-----|
A#|---------------3----------3-----|
F#|-5-----7-----5-3--------x-3-----|
C#|-5-----7-----5-5-5-5----x-5-5-5-|
G#|-3-----5-----3---5-5----x---5-5-|
C#|-----------------5-5--------5-5-|
 

[Pre-chorus 2]
-guitar 1
D#|-----------------------------------------------------------|
A#|----------------------15-15---------10-10------------------|
F#|-------12-12-------12------------11----------------12-12---|
C#|----12----------12------------12----------------12---------|
G#|-10------------------------------------------10------------|
C#|-----------------------------------------------------------|

-guitar 2
D#|-------------------------------------|
A#|-------------------------------------|
F#|-------------------------------------|
C#|-------------------------------------|
G#|-3-3-3-3/5---------5-5-5-5-3---------|
C#|-----------5-5-5-5-----------5/8-----|

-guitar 3
D#|----------------------------------------------------------|
A#|-15----15----15----15----15----15-----15-----15-----15----|
F#|----17----17----17----17----17----17--17b19--17b19--17b19-|
C#|----------------------------------------------------------|
G#|----------------------------------------------------------|
C#|----------------------------------------------------------|


[Chorus]
-guitar 1
D#|-3333-3333-------------2222-3333-----------3333-3333----------------------------|
A#|-4444-3333-------------3333-3333-----------4444-3333----------------------------|
F#|-5555-3333-5/7-5-3-----2222-3333-----3-----5555-3333-5/7-5-3---x7x7x7x7x7x7x7x7-|
C#|-5555-5555---------5---0000-5555-3-5---5---5555-5555---------5-x7x7x7x7x7x7x7x7-|
G#|---------------------------------------------------------------x5x5x5x5x5x5x5x5-|
C#|--------------------------------------------------------------------------------|

-guitar 2
D#|--------------------------------------------------------------------------------|
A#|--------------------------------------------------------------------------------|
F#|-5555------5/7-5-3-------------------3-----5555------5/7-5-3---x7x7x7x7x7x7x7x7-|
C#|-5555-5555---------5---0000-5555-3-5---5---5555-5555---------5-x7x7x7x7x7x7x7x7-|
G#|-3333-5555-------------0000-5555-----------3333-5555-----------x5x5x5x5x5x5x5x5-|
C#|------5555-------------0000-5555----------------5555---------------------------


[Bridge]
-guitar 1
D#|-----------------------------------------------------------------------|
A#|-3-------------------3-------------------------------------------------|
F#|-5b7-br5-3-----------5b7-br5-3------------3-3-3-3----------------------|
C#|-----------5-5-3-3-------------5-5-3-3------------3-3-3-5-5-5-5-5-5----|
G#|-----------------------------------------------------------------------|
C#|--------this is wrong but I really don't know how to fix it------------|

-guitar 2
D#|-------------------------------------------------------------------------|
A#|-------------------------------------------------------------------------|
F#|-------------------------------------------------------------------------|
C#|-10-10-10-10-10-10-10-10-8-8-8-8-8-8-8-8-5-5-5-5-5-5-5-5-5-5-5-5-5-5-5-5-|
G#|-10-10-10-10-10-10-10-10-8-8-8-8-8-8-8-8-5-5-5-5-5-5-5-5-5-5-5-5-5-5-5-5-|
C#|-10-10-10-10-10-10-10-10-8-8-8-8-8-8-8-8-5-5-5-5-5-5-5-5-5-5-5-5-5-5-5-5-|

D#|-------------------------------------------------------------------------|
A#|-------------------------------------------------------------------------|
F#|-------------------------7-7-7-7-7-7-7-7---------------------------------|
C#|-10-10-10-10-10-10-10-10-7-7-7-7-7-7-7-7-5-5-5-5-5-5-5-5-5-5-5-5-5-5-5-5-|
G#|-10-10-10-10-10-10-10-10-5-5-5-5-5-5-5-5-5-5-5-5-5-5-5-5-5-5-5-5-5-5-5-5-|
C#|-10-10-10-10-10-10-10-10-----------------5-5-5-5-5-5-5-5-5-5-5-5-5-5-5-5-|

[Chorus 2]
D#|-3333-3333-------------2222-3333-----------3333-3333----------------------------|
A#|-4444-3333-------------3333-3333-----------4444-3333------------(artificial )---|
F#|-5555-3333-5/7-5-3-----2222-3333-----3-----5555-3333-5b7-5-3----(harmonic on)---|
C#|-5555-5555---------5---0000-5555-3-5---5---5555-5555---------5--(the bend   )---|
G#|-----------------------------------------------------------------------xxxxxxxx-|
C#|-----------------------------------------------------------------------xxxxxxxx-|


[Chorus 3]
-guitar 1
D#|-3333-3333-------------2222-3333-----------3333-3333----------------------------|
A#|-4444-3333-------------3333-3333-----------4444-3333----------------------------|
F#|-5555-3333-5/7-5-3-----2222-3333-----3-----5555-3333-5/7-5-3---7777777777777777-|
C#|-5555-5555---------5---0000-5555-3-5---5---5555-5555---------5-7777777777777777-|
G#|---------------------------------------------------------------5555555555555555-|
C#|--------------------------------------------------------------------------------|

-guitar 2
D#|--------------------------------------------------------------------------------|
A#|--------------------------------------------------------------------------------|
F#|-5555------5/7-5-3-------------------3-----5555------5/7-5-3---7777777777777777-|
C#|-5555-5555---------5---0000-5555-3-5---5---5555-5555---------5-7777777777777777-|
G#|-3333-5555-------------0000-5555-----------3333-5555-----------5555555555555555-|
C#|------5555-------------0000-5555----------------5555---------------------------


[Outro]
-guitar 1
D#|-3333-3333-------------2222-3333-----------3333-3333-------------2222-------3---|
A#|-4444-3333-------------3333-3333-----------4444-3333-------------3333-----3-----|
F#|-5555-3333-5/7-5-3-----2222-3333-----3-----5555-3333-5/7-5-3-----2222---3-------|
C#|-5555-5555---------5---0000-5555-3-5---5---5555-5555---------5---0000-5---------|
G#|--------------------------------------------------------------------------------|
C#|--------------------------------------------------------------------------------|

-guitar 2
D#|-----------------------------------------0--------------------------------------|
A#|-----------------------------------------0--------------------------------------|
F#|-----------------------------------------0-5555---------------------------------|
C#|-----------------------0000-5555---x-x-x-0-5555-5555-------------0000-----------|
G#|-----------------------0000-5555---x-x-x-0-3333-5555-------------0000-----------|
C#|-----------------17\---0000-5555---x-x-x-0------5555-------17\---0000-----------|

            
            
Suggest correction
Creating personal tab
Creating personal tab
You can edit any tab online and save it as your Personal.

You can edit, replace or remove any tab part or add personal notes – all changes will be seen only by you.

Personal tabs can be accessed anytime from any device, even offline.
Learn more »
Give kudos to tab author, rate the tab!
1 2 3 4 5
comments
print report bad tab
guest
You may want to rate the tab now too:
select rating
Wanna post a correction for this tab? Suggest correction