Oops, an error
Loading. Please wait.

Heaven For The Weather bass

552 views 3 this week
no commentswrite comment
1 2 3 4 5
3 more votes to show rating
add to favorites
×
Save as Personal and add changes to this tab that will be seen only by you. Learn more ›
×
You can save this tab as Personal to edit and correct it or add notes. All changes will be seen only by you. Learn more »
launch autoscroll
font size
0
reset
guitar tuner
edit
Autoscroll
slow
fast
+/-
esc
set tempo
stop
Author
Difficulty
ok so this is my first tab so if u leave comments go easy

standard tune

/ = slide
p = pull off
intro/verse

G---------------------------------------------------------------------------|
D---------------------------------------------------------------------------|
A---------------------------------------------------------------------------|
E---7/2-----3-23----7/2-----3-23----3210---7/2-----3-23----3--5--7/2--------|


G----------|------------------|
D----------|------------------|======>only play at end of intro to start the
A----------|--4---------------|        verse
E--3-23----|----7-5-0---------|


Bridge (Don't even get me started)

G--------------------------------------------------------------------|
D---------------44-4--222---4444-2222-----------44-4-222---0000------|
A-----2-2-----------------------------2-2-----------------------4444-|
E--------------------------------------------------------------------|


Chorus (Baby, save me)
its either

G---------------------------|
D---------------------------|
A---------------------------| X7
E---7777/2222--3323--3-3----|

except the final time its

G------------------|
D------------------|
A------------------|
E---7777/2222--3p0-|

Verse...again except you play it eight times instead of four
bridge
chorus

except at the end instead of doing what i wrote up there u play

G--------------------------------|
D--------------------------------|
A--------------------0-2-0-2-4-5-|
E--7777/2222-----2-3-------------|

break

G---------------------------------------------------------------------------|
D---------------------------------------------------------------------------|
A---------------------------------------------------------------------------|
E-5-5-5-5-5-5-5-5-5-5-5-5-5-5-5-555-5-5-5-5-5-5-5-5-4-4-4-4-4-4-4-4-3-3-3-3-|

G-------------------------------------------------------------------------|
D-------------------------------------------------------------------------|
A-------------------------------------------------------------------------|X3
E3-3-3-3-2-2-2-2-2-2-2-2-222----------------------------------------------|


Bridge...except slide to the nineth fret on the D string after you play

4444--2222


No bass (baby save me)
Then

G------------------------------|
D------------------------------|
A------------------------------|
E--2-3---7777/2222--3323---3-3-|

then a constant

G--------------------------------------------------------|
D--------------------------------------------------------|
A--------------------------------------------------------|  X5
E-----7777/2222--3323----3--5----7777/2222--3323---3-3---|


The End


Lyrics:

Tonight I finally get the chance
To show you what I'm feeling
So now I'm taking out the time
To know you and your latest trends

Don't even get me started
On the topic of lovers eyes
Their attempts are so off-target
They don't know what is it to try

Baby, save me
Tell me that you wanna take me
To the place where we kissed the sky
Rain by day, shoot stars by night
[x2]

Now that we made it up into the sky
I've been wondering why
Why can't we keep away from everything
Stay high, just you and I

I'll make sure everything is all right
Sit tight
Don't you say a word
See the earth turn
Take a breath and stare like you
Have never, ever seen the world

Don't even get me started
On the topic of lovers eyes
Their attempts are so off-target
They don't know what is it to try

Baby, save me
Tell me that you wanna take me
To the place where we kissed the sky
Rain by day, shoot stars by night
[x2]

Baby, tell me what you want
What you need
Everything you've never seen
But you dreamed of a place out of space
We'll erase and be free in a scene
To a world that's been turned all around, upside-down
Never knowing what's around
Every corner of our horrible story
I'm glad we both found the ground
Safe and sound

Don't even get me started
On the topic of lovers eyes
Their attempts are so off-target
They don't know what is it to try

Baby, save me
Tell me that you wanna take me
To the place where we kissed the sky
Rain by day, shoot stars by night
[x2]

            
            
Suggest correction
Creating personal tab
Creating personal tab
You can edit any tab online and save it as your Personal.

You can edit, replace or remove any tab part or add personal notes – all changes will be seen only by you.

Personal tabs can be accessed anytime from any device, even offline.
Learn more »
Give kudos to tab author, rate the tab!
1 2 3 4 5
comments
print report bad tab
guest
You may want to rate the tab now too:
select rating
Wanna post a correction for this tab? Suggest correction