Oops, an error
Loading. Please wait.

Make It Rain bass

2,453 views 6 this week
no commentswrite comment
1 2 3 4 5
x 3
add to favorites
×
Save as Personal and add changes to this tab that will be seen only by you. Learn more ›
×
You can save this tab as Personal to edit and correct it or add notes. All changes will be seen only by you. Learn more »
launch autoscroll
font size
0
reset
guitar tuner
edit
Autoscroll
slow
fast
+/-
esc
set tempo
stop
Author
Artist: The Audition
Song: Make It Rain
Album: Champion
Tunning: Standard
Tabbed By: >>Max<<

This is my first bass tab. The order of the parts is at the bottom
but it's pretty obvious if you know the song I suppose.
If you have any corrections, let me know and I'll update it.


Verse
|-----------------------------------------
|----------------------------------------- 
|--3-3-5-6--3-3-5-6p5------1-3------------  x6
|----------------------4-4------1-1-3-4h6-



Pre Chorus 1

|------------------
|------------------
|--5-5-5-5-5-5-5-5-
|------------------



Chorus

|------------------------------------------------------------------ 
|------------------------------------------------------------------
|----------------------------------3-3-3-3-3-3-3-3-3-3-3-3-3-3-3-3-  x2
|--4-4-4-4-4-4-4-4-3-3-3-3-3-3-3-3---------------------------------


|------------------------------------------------------------------
|--------------------------------------------------3-3-3-3-1-1-1-1-
|----------------------------------1-1-1-1-1-1-1-1-----------------
|--4-4-4-4-4-4-4-4-3-3-3-3-3-3-3-3---------------------------------


|------------------------------------------------------------------  
|------------------------------------------------------------------
|----------------------------------3-3-3-3-3-3-3-3-3-3-3-3-3-3-3-3-
|--4-4-4-4-4-4-4-4-3-3-3-3-3-3-3-3---------------------------------



Pre Chorus

|----------------------------------------------------------------------------------
|----------------------------------------------------------------------------------
|--3-3-3-3-3-3-3-3-3-3-3-3-3-3-3-3-3-3-3-3-3-3-3-3-3-3-3-3-3-3-3-3-3-3-3-3-3-3-3-3-
|----------------------------------------------------------------------------------

|--------------------------------------------------
|--------------------------------------------------
|--6-6-6-6-6-6-6-6-8-8-8-8-8-8-8-8-5-5-5-5-5-5-5-5-
|--------------------------------------------------



Chorus 2

|------------------------------------------------------------------ 
|------------------------------------------------------------------
|----------------------------------3-3-3-3-3-3-3-3-3-3-3-3-3-3-3-3-  x2
|--4-4-4-4-4-4-4-4-3-3-3-3-3-3-3-3---------------------------------


|------------------------------------------------------------------
|--------------------------------------------------3-3-3-3-1-1-1-1-
|----------------------------------1-1-1-1-1-1-1-1-----------------
|--4-4-4-4-4-4-4-4-3-3-3-3-3-3-3-3---------------------------------


|------------------------------------------------------------------  
|------------------------------------------------------------------
|----------------------------------3-3-3-3-3-3-3-3-3-3-3-3-3-3-3-3-
|--4-4-4-4-4-4-4-4-3-3-3-3-3-3-3-3---------------------------------


|------------------------------------------------------------------  
|------------------------------------------------------------------    
|----------------------------------3-1-3-1-3-1-3-1-3-1-3-1-3-1-3-1-     
|--4-4-4-4-4-4-4-4-3-3-3-3-3-3-3-3---------------------------------  



Bridge

|-----------------------------------------------------------------
|----------1-1-3-5--------1-1-3-5---------------------------------
|--3-3-1-3----------1-3-1----------------------------------------- x4
|---------------------------------4-4-4-4-4-4-4-4-3-3-3-3-3-3-3-3-



End

|------------
|------------
|----------3-
|--4~--3~----


Order:
Verse 
Pre Chorus 1
Chorus
Verse (x4)
Pre Chorus 2
Chorus 2
Bridge
Chorus 1
End
Suggest correction
Creating personal tab
Creating personal tab
You can edit any tab online and save it as your Personal.

You can edit, replace or remove any tab part or add personal notes – all changes will be seen only by you.

Personal tabs can be accessed anytime from any device, even offline.
Learn more »
Give kudos to tab author, rate the tab!
1 2 3 4 5
comments
print report bad tab
guest
You may want to rate the tab now too:
select rating
Wanna post a correction for this tab? Suggest correction