Oops, an error
Loading. Please wait.

Youve Made Us Conscious bass

version 1
version 1

Whole song

Interactive

948 views 3 this week
1 commentread comment
1 2 3 4 5
1 last vote to show rating
add to favorites
×
Save as Personal and add changes to this tab that will be seen only by you. Learn more ›
×
You can save this tab as Personal to edit and correct it or add notes. All changes will be seen only by you. Learn more »
launch autoscroll
font size
0
reset
guitar tuner
edit
Autoscroll
slow
fast
+/-
esc
set tempo
stop
This Tab Was Very Simple and Somewhat Boring So I've added some stuff in here to make it 
little more fun such as:

1.I Added the Very Small Variation in the Chorus/Intro
2.In the verse Continued I Added A Few Extra Notes
If You Were Wondering why you weren't hearing them
In the Actual Song
3. I'm Probably Going To End Up Putting some variations
In the Breakdown a while later but for now its fine. Enjoy


Intro                             X2
G------------------------------------|
D------------------------------------|
A---------------4p3------------------|
E-22222222/44444---40000000000000000-|


Verse                     X2
G---------------------------|
D---------------------------|
A---------------------------|
E-22-22-44-44-00-00-22-22---|

Verse Continued (7/ only played first time)   X2
G-----------------------------------------------|
D-----------------------------------------------|
A-----------------------------------------------|
E-7/22-22-44-44-4-4-00-00-22-22-2-2-------------|

Bridge
G------|
D------|
A------|
E-2~---

Chorus                            X4
G------------------------------------|
D------------------------------------|
A---------------4p3------------------|
E-22222222/44444---40000000000000000-|

Verse                     X2
G---------------------------|
D---------------------------|
A---------------------------|
E-22-22-44-44-00-00-22-22---|

Verse Continued (7/ only played first time)   X2
G-----------------------------------------------|
D-----------------------------------------------|
A-----------------------------------------------|
E-7/22-22-44-44-4-4-00-00-22-22-2-2-------------|

Bridge
G------|
D------|
A------|
E-2~---

Chorus                            X4
G------------------------------------|
D------------------------------------|
A---------------4p3------------------|
E-22222222/44444---40000000000000000-|

Breakdown                                               X4
G---------------------------------------------------------|
D---------------------------------------------------------|
A---------------------------------------------------------|
E-22222222222222224444444444444444000000000000000000000000

Bridge
G---------|
D---------|
A---------|
E-2~-2-2~-|

Chorus
G---------------------------|
D---------------------------|
A------4p3------------------|
E-44444---40000000000000000-|

Chorus                            X3
G------------------------------------|
D------------------------------------|
A---------------4p3------------------|
E-22222222/44444---40000000000000000-|

            
            
Suggest correction
Creating personal tab
Creating personal tab
You can edit any tab online and save it as your Personal.

You can edit, replace or remove any tab part or add personal notes – all changes will be seen only by you.

Personal tabs can be accessed anytime from any device, even offline.
Learn more »
Give kudos to tab author, rate the tab!
1 2 3 4 5
comments
print report bad tab
1 comment total.
+1 reply
nickel3t 174 Mar 21, 2006 03:42 PM

yeah when u add ur own crap to the song it sounds horrible...so dont ever do it again...

guest
You may want to rate the tab now too:
select rating
Wanna post a correction for this tab? Suggest correction