Oops, an error
Loading. Please wait.

Make You Crazy bass

110 views 1 this week
no commentswrite comment
1 2 3 4 5
3 more votes to show rating
add to favorites
×
Save as Personal and add changes to this tab that will be seen only by you. Learn more ›
×
You can save this tab as Personal to edit and correct it or add notes. All changes will be seen only by you. Learn more »
launch autoscroll
font size
0
reset
guitar tuner
edit
Autoscroll
slow
fast
+/-
esc
set tempo
stop
Author
Difficulty
I got this tabs directly from Chris Moss, The August Infinitys bassist :)
Check them online http://www.theaugustinfinity.com

He plays a 5-String
Tuning: A# C# G# c# f#

u - up stroke
d - down stroke
h - hammer on
p - pull off
x - muted chop
/ - slide up
\ - slide down

"i may have missed some rhythmic hits in tabbing it; just listen to the track
for the rhythm "

Intro
    u
f# ------------------------------------------------------------------|
c# ------------------------------------------------------------------|
G# ----5--3h5--xx10-8-7h8--1--1-1-1-1---3--3-3-3-3-------------------|
C# -0----------------------------------------------------------------|
A# ------------------------------------------------------------------|

    u
f# ----------------------------------3-----------------5-5-5---------|
c# --------------------------------3---3------------5----------------|
G# ----5--3h5--xx10-8-7h8--1--1--1-------1--3--3-3-------------------|
C# -0----------------------------------------------------------0-----|
A# ------------------------------------------------------------------|


Verse
    u d u d u   d  d d d u  u
f# -------------------------------------------------------------5----5-----------------|
c# ------------------------------------------------------------------------------------|
G# -5-5-5-3-5--12-10-8-7-8--1-1-1-1-1-0----------------3-3-3-3----3-----3--3-1---0-0-0-|
C# -------------------------------------5-3-3-3-3-3-5----------------------------------|
A# ------------------------------------------------------------------------------------|

f# -------------------------------------------------------------------------------|
c# --------------3-2--------------------------------------------------------------|
G# -3-1-0--1-1-1-----3--5-5-5-3-5--12-10-8-7-8--1-1-1-1-1-0-----------------------|
C# ----------------------------------------------------------5-3-3-3-3-3-5--------|
A# -------------------------------------------------------------------------------|
    u      d d d d d  d u  u u u d u d u
f# ----------5---5---------------------------------------------------|
c# ------------------------------------------------------------------|
G# -3--3-3-3---3---3--3-1--0-0-0-0-0-1-1--/--13-13-13----------------|
C# ------------------------------------------------------------------|
A# ------------------------------------------------------------------|

Pre-Chorus 1

f# ------------------------------------------------------------------------------------|
c# ------------------------------------------------------------------------------------|
G# -5-5-5-3-5\--1-1-1-1-1-0---------------3-3-3-1-3\------------0-0-0-0--0-0-1---------|
C# -------------------------5-3-3-3-3-3-5----------------------------------------------|
A# ---------------------------------------------------1111-1111------------------------|


Chorus
    u
f# -------------------------------------------------------------------------|
c# -------------------------------------------------------------------------|
G# -5-55555555-1-1-1-1-0------------3p2p0--5-5555555555--1-1-1-1----------3-|
C# ----------------------5-3--0h3h5-------------------------------3-3-3-3---|
A# -------------------------------------------------------------------------|
    u
f# -------------------------------------------------------------------------------------|
c# -------------------------------------------------------------------------------------|
G# -5-5-5-5-5-x-8-8-8-x-10-10-10-x-5-5-5-5-x-x-5-x-x-5-x-x-5-3-1-1-1-0-----------3p2p0--|
C# --------------------------------------------------------------------5-3-0h3h5--------|
A# -------------------------------------------------------------------------------------|

Go Back to Verse

Pre-Chorus 2

    u       slide off                             slide off
f# ------------------------------------------------------------------------------------|
c# -------------------------------------------------------------------------xxxx-------|
G# -5-5-5-3-5\--1-1-1-1-1-0---------------3-3-3-1-3\------------0-0-0-x-1-1------------|
C# -------------------------5-3-3-3-3-3-5----------------------------------------------|
A# ---------------------------------------------------1111-1111------------------------|

    u
f# ------------------------------------------------------------------------------------|
c# ------------------------------------------------------------------------------------|
G# -5-5-5-3-5\--1-1-1-1-1-0---------------3-3-3-1-3\------------0-0-0-0--0-0-1---------|
C# -------------------------5-3-3-3-3-3-5----------------------------------------------|
A# ---------------------------------------------------1111-1111------------------------|

2nd Chorus (same as the first but I add a high C# before the break)
    u
f# -------------------------------------------------------------------------|
c# -------------------------------------------------------------------------|
G# -5-55555555-1-1-1-1-0------------3p2p0--5-5555555555--1-1-1-1----------3-|
C# ----------------------5-3--0h3h5-------------------------------3-3-3-3---|
A# -------------------------------------------------------------------------|

f# --------------------------------------------------------------------------------------|
c# --------------------------------------------------------------------------------------|
G# -5-5-5-5-5-x-8-8-8-x-10-10-10-x-5-5-5-5-x-x-5-x-x-5-x-x-5-3-1-1-1-0-----------3p2p0-5-|
C# --------------------------------------------------------------------5-3-0h3h5---------|
A# --------------------------------------------------------------------------------------|

Break (solo) the entire song is mostly up beats until the break, then it starts with 
down beats
    d
f# ------------------------------------------------------------------|
c# ------------------------------------------------------------------|
G# ------------------------------------------------------------------|
C# -0-0-0--0-0-0--0-0-0--0-0-0-----8-8-8--8-8-8--7-7-7--7-7-10-8-7-8-|
A# -----------------------------1------------------------------------|

f# ------------------------------------------------------------------|
c# ------------------------------------------------------------------|
G# ------------------------------------------------------------------|
C# -0-3p0-3h5-5-0-3p0-3h5-5-5--0-3p0-3h5-5-0-3p0-3h5-5-5-------------|
A# ------------------------------------------------------------------|

f# ------------------------------------------------------------------|
c# ------------------------------------------7-----------------------|
G# --------------------------------------------8-7-10-8-7\-----------|
C# -88-8-8-8-8\--88-8-8-8-8\--77-7-7-7-7\-77-------------------------|
A# ------------------------------------------------------------------|

f# ------------------------------------------------------------------|
c# ------------------------------------------------------------------|
G# ------------------------------------------------------------------|
C# -0-3p0-3h5-5-0-3p0-3h5-5-5--0-3p0-3h5-5-0-3p0-3h5-5-5-------------|
A# ------------------------------------------------------------------|
                                                  ring out
f# ------------------------------------------------------------------|
c# ------------------------------------------------------------------|
G# -----------------------------33-3-3-3-3-3-3-3---------------------|
C# -88-8-8-8-8\--88-8-8-8-8\----------------------0------------------|
A# ------------------------------------------------------------------|

Chorus


Outro

f# ------------------------------------------------------------------|
c# ------------------------------------------------------------------|
G# -------------------------5-5-5-3-5\----5-5-5-3-5\-----------------|
C# -0-0-0-3-0---0-0-0-3-0------------------------------0-0-0-3-0-----|
A# ------------------------------------------------------------------|

            
            
Suggest correction
Creating personal tab
Creating personal tab
You can edit any tab online and save it as your Personal.

You can edit, replace or remove any tab part or add personal notes – all changes will be seen only by you.

Personal tabs can be accessed anytime from any device, even offline.
Learn more »
Give kudos to tab author, rate the tab!
1 2 3 4 5
comments
print report bad tab
guest
You may want to rate the tab now too:
select rating
Wanna post a correction for this tab? Suggest correction