Oops, an error
Loading. Please wait.

Lost At Home bass

260 views 1 this week
no commentswrite comment
1 2 3 4 5
3 more votes to show rating
add to favorites
×
Save as Personal and add changes to this tab that will be seen only by you. Learn more ›
×
You can save this tab as Personal to edit and correct it or add notes. All changes will be seen only by you. Learn more »
launch autoscroll
font size
0
reset
guitar tuner
edit
Autoscroll
slow
fast
+/-
esc
set tempo
stop
Author
Difficulty
Lost at Home
Not Accepted Anywhere
The Automatic

VERSE

Give me a reason not to keep sleeping When I'm awake I feel like I am dreaming

G|------------------------------------------|
D|------------------------------------------|
A|-2-2-2-2-2-4-4-4-2-4----------------------|
E|---------------------4-4-4-2--4-6-6-6-4-6-|

The world is shrinking, every street's the same thing I can't reach that far but there 
people disappearing

G|------------------------------------------|
D|------------------------------------------|
A|-2-2-2-2-2-4-4-4-2-4----------------------|
E|---------------------4-4-4-2--4-6-6-6-4-6-|

How can I pretend to know my own mind The more questions I ask the more I find

G|------------------------------------------|
D|------------------------------------------|
A|-2-2-2-2-2-4-4-4-2-4----------------------|
E|---------------------4-4-4-2--4-6-6-6-4-6-|

I'm lost at home, out of time The coins I flip land on their side

G|------------------------------------------|
D|------------------------------------------|
A|-2-2-2-2-2-4-4-4-2-4----------------------|
E|---------------------4-4-4-2--4-6-6-6-4-6-|

CHORUS

I'm holding my breath at your end of town

G|--------------------------------------------------------------|
D|--------------------------------------------------------------|
A|-2-2-2-2-2-2-2-2-2-2-4-4-6-6-6-6-6-7-6-6-7-6-6-7-6-6-7-6-6-7--|
E|--------------------------------------------------------------|

I'm just passing by, not for the first time

G|--------------------------------------------------------------|
D|--------------------------------------------------------------|
A|-2-2-2-2-2-2-2-2-2-2-4-4-6-6-6-6-6-7-6-6-7-6-6-7-6-6-7-6-6-7--|
E|--------------------------------------------------------------|

If I could rest my head just for a moment

G|--------------------------------------------------------------|
D|--------------------------------------------------------------|
A|-2-2-2-2-2-2-2-2-2-2-4-4-6-6-6-6-6-7-6-6-7-6-6-7-6-6-7-6-6-7--|
E|--------------------------------------------------------------|

Then I think that I would be fine

G|--------------------------------------------------------------|
D|--------------------------------------------------------------|
A|-2-2-2-2-2-2-2-2-2-2-4-4-6-6-6-6-6-7-6-6-7-6-6-7-6-6-7-6-6-7--|
E|--------------------------------------------------------------|

Pre Verse

G|-------------|
D|-------------|
A|-2--2--2--2--|
E|-------------|

VERSE

Slowly sinking, still thinking There must be something I am missing

G|------------------------------------------|
D|------------------------------------------|
A|-2-2-2-2-2-4-4-4-2-4----------------------|
E|---------------------4-4-4-2--4-6-6-6-4-6-|

The street light, my sun light I won't sleep, I'm up all night

G|------------------------------------------|
D|------------------------------------------|
A|-2-2-2-2-2-4-4-4-2-4----------------------|
E|---------------------4-4-4-2--4-6-6-6-4-6-|


Can't stop (can't stop) till I (till I) have been (have been) used up (used up)

G|------------------------------------------|
D|------------------------------------------|
A|-2-2-2-2-2-4-4-4-2-4----------------------|
E|---------------------4-4-4-2--4-6-6-6-4-6-|

If I was not lost for words then I'd have nothing to describe

G|------------------------------------------|
D|------------------------------------------|
A|-2-2-2-2-2-4-4-4-2-4----------------------|
E|---------------------4-4-4-2--4-6-6-6-4-6-|

CHORUS

I'm holding my breath at your end of town

G|--------------------------------------------------------------|
D|--------------------------------------------------------------|
A|-2-2-2-2-2-2-2-2-2-2-4-4-6-6-6-6-6-7-6-6-7-6-6-7-6-6-7-6-6-7--|
E|--------------------------------------------------------------|

I'm just passing by, not for the first time

G|--------------------------------------------------------------|
D|--------------------------------------------------------------|
A|-2-2-2-2-2-2-2-2-2-2-4-4-6-6-6-6-6-7-6-6-7-6-6-7-6-6-7-6-6-7--|
E|--------------------------------------------------------------|

If I could rest my head just for a moment

G|--------------------------------------------------------------|
D|--------------------------------------------------------------|
A|-2-2-2-2-2-2-2-2-2-2-4-4-6-6-6-6-6-7-6-6-7-6-6-7-6-6-7-6-6-7--|
E|--------------------------------------------------------------|

Then I think that I would be fine

G|--------------------------------------------------------------|
D|--------------------------------------------------------------|
A|-2-2-2-2-2-2-2-2-2-2-4-4-6-6-6-6-6-7-6-6-7-6-6-7-6-6-7-6-6-7--|
E|--------------------------------------------------------------|

BREAKDOWN

G|-------------------------------|
D|-------------------------------|
A|-2-1-2-1-2-1-2-2-6-4-6-4-6-4-4-|
E|-------------------------------|

G|-------------------------------|
D|-------------------------------|
A|-2-1-2-1-2-1-2-2-6-4-6-4-6-4-4-|
E|-------------------------------|

G|-------------------------------|
D|-------------------------------|
A|-2-1-2-1-2-1-2-2-6-4-6-4-6-4-4-|
E|-------------------------------|

G|-------------------------------|
D|-------------------------------|
A|-2-1-2-1-2-1-2-2-6-4-6-4-6-4-4-|
E|-------------------------------|

G|-------------------------------|
D|-------------------------------|
A|-2-1-2-1-2-1-2-2-6-4-6-4-6-4-4-|
E|-------------------------------|

G|-------------------------------|
D|-------------------------------|
A|-2-1-2-1-2-1-2-2-6-4-6-4-6-4-4-|
E|-------------------------------|

CHORUS

I'm holding my breath at your end of town

G|--------------------------------------------------------------|
D|--------------------------------------------------------------|
A|-2-2-2-2-2-2-2-2-2-2-4-4-6-6-6-6-6-7-6-6-7-6-6-7-6-6-7-6-6-7--|
E|--------------------------------------------------------------|

I'm just passing by, not for the first time

G|--------------------------------------------------------------|
D|--------------------------------------------------------------|
A|-2-2-2-2-2-2-2-2-2-2-4-4-6-6-6-6-6-7-6-6-7-6-6-7-6-6-7-6-6-7--|
E|--------------------------------------------------------------|

If I could rest my head just for a moment

G|--------------------------------------------------------------|
D|--------------------------------------------------------------|
A|-2-2-2-2-2-2-2-2-2-2-4-4-6-6-6-6-6-7-6-6-7-6-6-7-6-6-7-6-6-7--|
E|--------------------------------------------------------------|

Then I think that I would be fine

G|--------------------------------------------------------------|
D|--------------------------------------------------------------|
A|-2-2-2-2-2-2-2-2-2-2-4-4-6-6-6-6-6-7-6-6-7-6-6-7-6-6-7-6-6-7--|
E|--------------------------------------------------------------|

OUTRO
(extended outro that the band use live)

G|-----------------------------------|
D|-----------------------------------|
A|-2-2-2-2-2-2-2-2-1-1-1-1-1-1-1-1-4-|
E|-----------------------------------|

G|-----------------------------------|
D|-----------------------------------|
A|-2-2-2-2-2-2-2-2-1-1-1-1-1-1-1-1-4-|
E|-----------------------------------|

G|-------------------------------|
D|-------------------------------|
A|-2-1-2-1-2-1-2-2-6-4-6-4-6-4-4-|
E|-------------------------------|

G|-------------------------------|
D|-------------------------------|
A|-2-1-2-1-2-1-2-2-6-4-6-4-6-4-4-|
E|-------------------------------|

G|-------------------------------|
D|-------------------------------|
A|-22112211221122226644664466444-|
E|-------------------------------|

G|-------------------------------|
D|-------------------------------|
A|-22112211221122226644664466444-|
E|-------------------------------|
Suggest correction
Creating personal tab
Creating personal tab
You can edit any tab online and save it as your Personal.

You can edit, replace or remove any tab part or add personal notes – all changes will be seen only by you.

Personal tabs can be accessed anytime from any device, even offline.
Learn more »
Give kudos to tab author, rate the tab!
1 2 3 4 5
comments
print report bad tab
guest
You may want to rate the tab now too:
select rating
Wanna post a correction for this tab? Suggest correction